  0
SECTION
  2
HEADER
  9
$ACADVER
  1
AC1015
  9
$ACADMAINTVER
 70
     6
  9
$DWGCODEPAGE
  3
ANSI_1254
  9
$INSBASE
 10
0.0
 20
0.0
 30
0.0
  9
$EXTMIN
 10
0.0
 20
0.0
 30
0.0
  9
$EXTMAX
 10
279.4
 20
215.9
 30
0.0
  9
$LIMMIN
 10
0.0
 20
0.0
  9
$LIMMAX
 10
279.4
 20
215.9
  9
$ORTHOMODE
 70
     0
  9
$REGENMODE
 70
     1
  9
$FILLMODE
 70
     1
  9
$QTEXTMODE
 70
     0
  9
$MIRRTEXT
 70
     1
  9
$LTSCALE
 40
1.0
  9
$ATTMODE
 70
     1
  9
$TEXTSIZE
 40
3.5
  9
$TRACEWID
 40
1.0
  9
$TEXTSTYLE
  7
Standard
  9
$CLAYER
  8
0
  9
$CELTYPE
  6
ByLayer
  9
$CECOLOR
 62
   256
  9
$CELTSCALE
 40
1.0
  9
$DISPSILH
 70
     0
  9
$DIMSCALE
 40
1.0
  9
$DIMASZ
 40
3.5
  9
$DIMEXO
 40
1.0
  9
$DIMDLI
 40
3.75
  9
$DIMRND
 40
0.0
  9
$DIMDLE
 40
0.0
  9
$DIMEXE
 40
1.0
  9
$DIMTP
 40
0.0
  9
$DIMTM
 40
0.0
  9
$DIMTXT
 40
3.5
  9
$DIMCEN
 40
2.5
  9
$DIMTSZ
 40
0.0
  9
$DIMTOL
 70
     0
  9
$DIMLIM
 70
     0
  9
$DIMTIH
 70
     1
  9
$DIMTOH
 70
     1
  9
$DIMSE1
 70
     0
  9
$DIMSE2
 70
     0
  9
$DIMTAD
 70
     1
  9
$DIMZIN
 70
     0
  9
$DIMBLK
  1

  9
$DIMASO
 70
     1
  9
$DIMSHO
 70
     1
  9
$DIMPOST
  1

  9
$DIMAPOST
  1

  9
$DIMALT
 70
     0
  9
$DIMALTD
 70
     3
  9
$DIMALTF
 40
0.0393700787
  9
$DIMLFAC
 40
1.0
  9
$DIMTOFL
 70
     1
  9
$DIMTVP
 40
0.0
  9
$DIMTIX
 70
     0
  9
$DIMSOXD
 70
     0
  9
$DIMSAH
 70
     0
  9
$DIMBLK1
  1

  9
$DIMBLK2
  1

  9
$DIMSTYLE
  2
ISO-25
  9
$DIMCLRD
 70
     0
  9
$DIMCLRE
 70
     0
  9
$DIMCLRT
 70
     0
  9
$DIMTFAC
 40
1.0
  9
$DIMGAP
 40
1.524
  9
$DIMJUST
 70
     0
  9
$DIMSD1
 70
     0
  9
$DIMSD2
 70
     0
  9
$DIMTOLJ
 70
     0
  9
$DIMTZIN
 70
     0
  9
$DIMALTZ
 70
     0
  9
$DIMALTTZ
 70
     0
  9
$DIMUPT
 70
     0
  9
$DIMDEC
 70
     2
  9
$DIMTDEC
 70
     2
  9
$DIMALTU
 70
     2
  9
$DIMALTTD
 70
     3
  9
$DIMTXSTY
  7
Standard
  9
$DIMAUNIT
 70
     0
  9
$DIMADEC
 70
     2
  9
$DIMALTRND
 40
0.0
  9
$DIMAZIN
 70
     0
  9
$DIMDSEP
 70
    44
  9
$DIMATFIT
 70
     3
  9
$DIMFRAC
 70
     0
  9
$DIMLDRBLK
  1

  9
$DIMLUNIT
 70
     2
  9
$DIMLWD
 70
    -2
  9
$DIMLWE
 70
    -2
  9
$DIMTMOVE
 70
     0
  9
$LUNITS
 70
     2
  9
$LUPREC
 70
     2
  9
$SKETCHINC
 40
1.0
  9
$FILLETRAD
 40
10.0
  9
$AUNITS
 70
     0
  9
$AUPREC
 70
     2
  9
$MENU
  1
.
  9
$ELEVATION
 40
0.0
  9
$PELEVATION
 40
0.0
  9
$THICKNESS
 40
0.0
  9
$LIMCHECK
 70
     0
  9
$CHAMFERA
 40
0.0
  9
$CHAMFERB
 40
0.0
  9
$CHAMFERC
 40
0.0
  9
$CHAMFERD
 40
0.0
  9
$SKPOLY
 70
     0
  9
$TDCREATE
 40
2459741.592438692
  9
$TDUCREATE
 40
2459741.467438692
  9
$TDUPDATE
 40
2459741.59244022
  9
$TDUUPDATE
 40
2459741.46744022
  9
$TDINDWG
 40
0.0000000116
  9
$TDUSRTIMER
 40
0.0000000116
  9
$USRTIMER
 70
     1
  9
$ANGBASE
 50
0.0
  9
$ANGDIR
 70
     0
  9
$PDMODE
 70
     0
  9
$PDSIZE
 40
-1.0
  9
$PLINEWID
 40
0.0
  9
$SPLFRAME
 70
     0
  9
$SPLINETYPE
 70
     6
  9
$SPLINESEGS
 70
     8
  9
$HANDSEED
  5
126
  9
$SURFTAB1
 70
     6
  9
$SURFTAB2
 70
     6
  9
$SURFTYPE
 70
     6
  9
$SURFU
 70
     6
  9
$SURFV
 70
     6
  9
$UCSBASE
  2

  9
$UCSNAME
  2

  9
$UCSORG
 10
0.0
 20
0.0
 30
0.0
  9
$UCSXDIR
 10
1.0
 20
0.0
 30
0.0
  9
$UCSYDIR
 10
0.0
 20
1.0
 30
0.0
  9
$UCSORTHOREF
  2

  9
$UCSORTHOVIEW
 70
     0
  9
$UCSORGTOP
 10
0.0
 20
0.0
 30
0.0
  9
$UCSORGBOTTOM
 10
0.0
 20
0.0
 30
0.0
  9
$UCSORGLEFT
 10
0.0
 20
0.0
 30
0.0
  9
$UCSORGRIGHT
 10
0.0
 20
0.0
 30
0.0
  9
$UCSORGFRONT
 10
0.0
 20
0.0
 30
0.0
  9
$UCSORGBACK
 10
0.0
 20
0.0
 30
0.0
  9
$PUCSBASE
  2

  9
$PUCSNAME
  2

  9
$PUCSORG
 10
0.0
 20
0.0
 30
0.0
  9
$PUCSXDIR
 10
1.0
 20
0.0
 30
0.0
  9
$PUCSYDIR
 10
0.0
 20
1.0
 30
0.0
  9
$PUCSORTHOREF
  2

  9
$PUCSORTHOVIEW
 70
     0
  9
$PUCSORGTOP
 10
0.0
 20
0.0
 30
0.0
  9
$PUCSORGBOTTOM
 10
0.0
 20
0.0
 30
0.0
  9
$PUCSORGLEFT
 10
0.0
 20
0.0
 30
0.0
  9
$PUCSORGRIGHT
 10
0.0
 20
0.0
 30
0.0
  9
$PUCSORGFRONT
 10
0.0
 20
0.0
 30
0.0
  9
$PUCSORGBACK
 10
0.0
 20
0.0
 30
0.0
  9
$USERI1
 70
     0
  9
$USERI2
 70
     0
  9
$USERI3
 70
     0
  9
$USERI4
 70
     0
  9
$USERI5
 70
     0
  9
$USERR1
 40
0.0
  9
$USERR2
 40
0.0
  9
$USERR3
 40
0.0
  9
$USERR4
 40
0.0
  9
$USERR5
 40
0.0
  9
$WORLDVIEW
 70
     1
  9
$SHADEDGE
 70
     3
  9
$SHADEDIF
 70
    70
  9
$TILEMODE
 70
     1
  9
$MAXACTVP
 70
    64
  9
$PINSBASE
 10
0.0
 20
0.0
 30
0.0
  9
$PLIMCHECK
 70
     0
  9
$PEXTMIN
 10
1.0000000000E+20
 20
1.0000000000E+20
 30
1.0000000000E+20
  9
$PEXTMAX
 10
-1.0000000000E+20
 20
-1.0000000000E+20
 30
-1.0000000000E+20
  9
$PLIMMIN
 10
0.0
 20
0.0
  9
$PLIMMAX
 10
420.0
 20
297.0
  9
$UNITMODE
 70
     0
  9
$VISRETAIN
 70
     1
  9
$PLINEGEN
 70
     0
  9
$PSLTSCALE
 70
     1
  9
$TREEDEPTH
 70
  3020
  9
$CMLSTYLE
  2
Standard
  9
$CMLJUST
 70
     0
  9
$CMLSCALE
 40
20.0
  9
$PROXYGRAPHICS
 70
     1
  9
$MEASUREMENT
 70
     1
  9
$CELWEIGHT
370
    -1
  9
$ENDCAPS
280
     0
  9
$JOINSTYLE
280
     0
  9
$LWDISPLAY
290
     1
  9
$INSUNITS
 70
     4
  9
$HYPERLINKBASE
  1

  9
$STYLESHEET
  1

  9
$XEDIT
290
     1
  9
$CEPSNTYPE
380
     0
  9
$PSTYLEMODE
290
     1
  9
$FINGERPRINTGUID
  2
{9b493aa0-b19b-449f-8646-93a161d4170c}
  9
$VERSIONGUID
  2
{FAEB1C32-E019-11D5-929B-00C0DF256EC4}
  9
$EXTNAMES
290
     1
  9
$PSVPSCALE
 40
0.0
  9
$OLESTARTUP
290
     0
  0
ENDSEC
  0
SECTION
  2
CLASSES
  0
CLASS
  1
ACDBDICTIONARYWDFLT
  2
AcDbDictionaryWithDefault
  3
ObjectDBX Classes
 90
        0
280
     0
281
     0
  0
CLASS
  1
VISUALSTYLE
  2
AcDbVisualStyle
  3
ObjectDBX Classes
 90
     4095
280
     0
281
     0
  0
CLASS
  1
MATERIAL
  2
AcDbMaterial
  3
ObjectDBX Classes
 90
     1153
280
     0
281
     0
  0
CLASS
  1
SCALE
  2
AcDbScale
  3
ObjectDBX Classes
 90
     1153
280
     0
281
     0
  0
CLASS
  1
TABLESTYLE
  2
AcDbTableStyle
  3
ObjectDBX Classes
 90
     4095
280
     0
281
     0
  0
CLASS
  1
MLEADERSTYLE
  2
AcDbMLeaderStyle
  3
ACDB_MLEADERSTYLE_CLASS
 90
     4095
280
     0
281
     0
  0
CLASS
  1
SUN
  2
AcDbSun
  3
SCENEOE
 90
     1153
280
     0
281
     0
  0
CLASS
  1
ACDBPLACEHOLDER
  2
AcDbPlaceHolder
  3
ObjectDBX Classes
 90
        0
280
     0
281
     0
  0
CLASS
  1
LAYOUT
  2
AcDbLayout
  3
ObjectDBX Classes
 90
        0
280
     0
281
     0
  0
ENDSEC
  0
SECTION
  2
TABLES
  0
TABLE
  2
VPORT
  5
8
330
0
100
AcDbSymbolTable
 70
     1
  0
VPORT
  5
29
330
8
100
AcDbSymbolTableRecord
100
AcDbViewportTableRecord
  2
*Active
 70
     0
 10
0.0
 20
0.0
 11
1.0
 21
1.0
 12
139.7
 22
107.95
 13
0.0
 23
0.0
 14
10.0
 24
10.0
 15
10.0
 25
10.0
 16
0.0
 26
0.0
 36
1.0
 17
0.0
 27
0.0
 37
0.0
 40
215.9
 41
1.2941176471
 42
50.0
 43
0.0
 44
0.0
 50
0.0
 51
0.0
 71
     0
 72
  2000
 73
     1
 74
     3
 75
     0
 76
     0
 77
     0
 78
     0
281
     0
 65
     1
110
0.0
120
0.0
130
0.0
111
1.0
121
0.0
131
0.0
112
0.0
122
1.0
132
0.0
 79
     0
146
0.0
  0
ENDTAB
  0
TABLE
  2
LTYPE
  5
5
330
0
100
AcDbSymbolTable
 70
     6
  0
LTYPE
  5
14
330
5
100
AcDbSymbolTableRecord
100
AcDbLinetypeTableRecord
  2
ByBlock
 70
     0
  3

 72
    65
 73
     0
 40
0.0
  0
LTYPE
  5
15
330
5
100
AcDbSymbolTableRecord
100
AcDbLinetypeTableRecord
  2
ByLayer
 70
     0
  3

 72
    65
 73
     0
 40
0.0
  0
LTYPE
  5
16
330
5
100
AcDbSymbolTableRecord
100
AcDbLinetypeTableRecord
  2
Continuous
 70
     0
  3
Solid line
 72
    65
 73
     0
 40
0.0
  0
LTYPE
  5
6E
330
5
100
AcDbSymbolTableRecord
100
AcDbLinetypeTableRecord
  2
HIDDEN
 70
     0
  3
Hidden __ __ __ __ __ __ __ __ __ __ __ __ __ __
 72
    65
 73
     2
 40
1.905
 49
1.27
 74
     0
 49
-0.635
 74
     0
  0
LTYPE
  5
6F
330
5
100
AcDbSymbolTableRecord
100
AcDbLinetypeTableRecord
  2
PHANTOM
 70
     0
  3
Phantom ______  __  __  ______  __  __  ______
 72
    65
 73
     6
 40
12.7
 49
6.35
 74
     0
 49
-1.27
 74
     0
 49
1.27
 74
     0
 49
-1.27
 74
     0
 49
1.27
 74
     0
 49
-1.27
 74
     0
  0
LTYPE
  5
70
330
5
100
AcDbSymbolTableRecord
100
AcDbLinetypeTableRecord
  2
CENTER
 70
     0
  3
Center ____ _ ____ _ ____ _ ____ _ ____ _ ____
 72
    65
 73
     4
 40
10.16
 49
6.35
 74
     0
 49
-1.27
 74
     0
 49
1.27
 74
     0
 49
-1.27
 74
     0
  0
LTYPE
  5
71
330
5
100
AcDbSymbolTableRecord
100
AcDbLinetypeTableRecord
  2
CENTERX2
 70
     0
  3
Center (2x) ________  __  ________  __  _____
 72
    65
 73
     4
 40
20.32
 49
12.7
 74
     0
 49
-2.54
 74
     0
 49
2.54
 74
     0
 49
-2.54
 74
     0
  0
LTYPE
  5
72
330
5
100
AcDbSymbolTableRecord
100
AcDbLinetypeTableRecord
  2
DOT2
 70
     0
  3
Dot (.5x) ........................................
 72
    65
 73
     2
 40
0.635
 49
0.0
 74
     0
 49
-0.635
 74
     0
  0
ENDTAB
  0
TABLE
  2
LAYER
  5
2
330
0
100
AcDbSymbolTable
 70
    17
  0
LAYER
  5
10
330
2
100
AcDbSymbolTableRecord
100
AcDbLayerTableRecord
  2
0
 70
     0
 62
     7
  6
Continuous
370
    -3
390
F
  0
LAYER
  5
73
330
2
100
AcDbSymbolTableRecord
100
AcDbLayerTableRecord
  2
FORMAT
 70
     0
 62
     7
  6
Continuous
370
    -3
390
F
  0
LAYER
  5
74
330
2
100
AcDbSymbolTableRecord
100
AcDbLayerTableRecord
  2
YARDIMCI_GEOMETRI
 70
     0
 62
    -6
  6
Continuous
290
     0
370
    -3
390
F
  0
LAYER
  5
75
330
2
100
AcDbSymbolTableRecord
100
AcDbLayerTableRecord
  2
SAYFA_CERCEVESI
 70
     0
 62
     7
  6
Continuous
370
    25
390
F
  0
LAYER
  5
76
330
2
100
AcDbSymbolTableRecord
100
AcDbLayerTableRecord
  2
ANTET
 70
     0
 62
     7
  6
Continuous
370
    -3
390
F
  0
LAYER
  5
77
330
2
100
AcDbSymbolTableRecord
100
AcDbLayerTableRecord
  2
OLCU
 70
     0
 62
   150
  6
Continuous
370
    -3
390
F
  0
LAYER
  5
78
330
2
100
AcDbSymbolTableRecord
100
AcDbLayerTableRecord
  2
METIN
 70
     0
 62
    96
  6
Continuous
370
    -3
390
F
  0
LAYER
  5
79
330
2
100
AcDbSymbolTableRecord
100
AcDbLayerTableRecord
  2
BALON
 70
     0
 62
     5
  6
Continuous
370
    -3
390
F
  0
LAYER
  5
7A
330
2
100
AcDbSymbolTableRecord
100
AcDbLayerTableRecord
  2
VURGU
 70
     0
 62
     7
  6
Continuous
370
    -3
390
F
  0
LAYER
  5
7B
330
2
100
AcDbSymbolTableRecord
100
AcDbLayerTableRecord
  2
SILIK
 70
     0
 62
     7
  6
Continuous
370
    -3
390
F
  0
LAYER
  5
7C
330
2
100
AcDbSymbolTableRecord
100
AcDbLayerTableRecord
  2
MODEL
 70
     0
 62
     7
  6
Continuous
370
    -3
390
F
  0
LAYER
  5
7D
330
2
100
AcDbSymbolTableRecord
100
AcDbLayerTableRecord
  2
DETAYLANDıRMA
 70
     0
 62
   190
  6
Continuous
370
    -3
390
F
  0
LAYER
  5
7E
330
2
100
AcDbSymbolTableRecord
100
AcDbLayerTableRecord
  2
TOLERANS
 70
     0
 62
   230
  6
Continuous
370
    -3
390
F
  0
LAYER
  5
7F
330
2
100
AcDbSymbolTableRecord
100
AcDbLayerTableRecord
  2
MERKEZ_CIZGILERI
 70
     0
 62
    30
  6
Continuous
370
    -3
390
F
  0
LAYER
  5
80
330
2
100
AcDbSymbolTableRecord
100
AcDbLayerTableRecord
  2
KESIT-DETAY_CIZGILERI
 70
     0
 62
     7
  6
Continuous
370
    -3
390
F
  0
LAYER
  5
81
330
2
100
AcDbSymbolTableRecord
100
AcDbLayerTableRecord
  2
\U+041E\U+0421\U+0415\U+0412\U+042B\U+0415
 70
     0
 62
     7
  6
Continuous
370
    -3
390
F
  0
LAYER
  5
82
330
2
100
AcDbSymbolTableRecord
100
AcDbLayerTableRecord
  2
\U+0412\U+041E\U+0414\U+042F\U+041D\U+042B\U+0415_\U+0417\U+041D\U+0410\U+041A\U+0418
 70
     0
 62
    11
  6
Continuous
370
    -3
390
F
  0
ENDTAB
  0
TABLE
  2
STYLE
  5
3
330
0
100
AcDbSymbolTable
 70
     1
  0
STYLE
  5
11
330
3
100
AcDbSymbolTableRecord
100
AcDbTextStyleTableRecord
  2
Standard
 70
     0
 40
0.0
 41
1.0
 50
0.0
 71
     0
 42
3.5
  3
txt
  4

  0
ENDTAB
  0
TABLE
  2
VIEW
  5
6
330
0
100
AcDbSymbolTable
 70
     0
  0
ENDTAB
  0
TABLE
  2
UCS
  5
7
330
0
100
AcDbSymbolTable
 70
     0
  0
ENDTAB
  0
TABLE
  2
APPID
  5
9
330
0
100
AcDbSymbolTable
 70
     1
  0
APPID
  5
12
330
9
100
AcDbSymbolTableRecord
100
AcDbRegAppTableRecord
  2
ACAD
 70
     0
  0
ENDTAB
  0
TABLE
  2
DIMSTYLE
  5
A
330
0
100
AcDbSymbolTable
 70
     1
100
AcDbDimStyleTable
  0
DIMSTYLE
105
27
330
A
100
AcDbSymbolTableRecord
100
AcDbDimStyleTableRecord
  2
ISO-25
 70
     0
 41
2.5
 42
0.625
 43
3.75
 44
1.25
 73
     0
 74
     0
 77
     1
 78
     8
140
2.5
141
2.5
143
0.0393700787
147
0.625
171
     3
172
     1
178
     0
271
     2
272
     2
274
     3
278
    44
283
     0
284
     8
340
11
  0
ENDTAB
  0
TABLE
  2
BLOCK_RECORD
  5
1
330
0
100
AcDbSymbolTable
 70
     6
  0
BLOCK_RECORD
  5
1F
330
1
100
AcDbSymbolTableRecord
100
AcDbBlockTableRecord
  2
*Model_Space
340
22
  0
BLOCK_RECORD
  5
1B
330
1
100
AcDbSymbolTableRecord
100
AcDbBlockTableRecord
  2
*Paper_Space
340
1E
  0
BLOCK_RECORD
  5
23
330
1
100
AcDbSymbolTableRecord
100
AcDbBlockTableRecord
  2
*Paper_Space0
340
26
  0
BLOCK_RECORD
  5
8F
330
1
100
AcDbSymbolTableRecord
100
AcDbBlockTableRecord
  2
SW_CENTERMARKSYMBOL_0
340
0
102
{BLKREFS
331
9A
102
}
  0
BLOCK_RECORD
  5
9B
330
1
100
AcDbSymbolTableRecord
100
AcDbBlockTableRecord
  2
SW_CENTERMARKSYMBOL_1
340
0
102
{BLKREFS
331
A6
102
}
  0
BLOCK_RECORD
  5
A7
330
1
100
AcDbSymbolTableRecord
100
AcDbBlockTableRecord
  2
SW_CENTERMARKSYMBOL_2
340
0
102
{BLKREFS
331
B2
102
}
  0
BLOCK_RECORD
  5
B3
330
1
100
AcDbSymbolTableRecord
100
AcDbBlockTableRecord
  2
SW_CENTERMARKSYMBOL_3
340
0
102
{BLKREFS
331
BE
102
}
  0
BLOCK_RECORD
  5
BF
330
1
100
AcDbSymbolTableRecord
100
AcDbBlockTableRecord
  2
SW_CENTERMARKSYMBOL_4
340
0
102
{BLKREFS
331
CA
102
}
  0
ENDTAB
  0
ENDSEC
  0
SECTION
  2
BLOCKS
  0
BLOCK
  5
20
330
1F
100
AcDbEntity
  8
0
100
AcDbBlockBegin
  2
*Model_Space
 70
     0
 10
0.0
 20
0.0
 30
0.0
  3
*Model_Space
  1

  0
ENDBLK
  5
21
330
1F
100
AcDbEntity
  8
0
100
AcDbBlockEnd
  0
BLOCK
  5
1C
330
1B
100
AcDbEntity
 67
     1
  8
0
100
AcDbBlockBegin
  2
*Paper_Space
 70
     0
 10
0.0
 20
0.0
 30
0.0
  3
*Paper_Space
  1

  0
ENDBLK
  5
1D
330
1B
100
AcDbEntity
 67
     1
  8
0
100
AcDbBlockEnd
  0
BLOCK
  5
24
330
23
100
AcDbEntity
  8
0
100
AcDbBlockBegin
  2
*Paper_Space0
 70
     0
 10
0.0
 20
0.0
 30
0.0
  3
*Paper_Space0
  1

  0
ENDBLK
  5
25
330
23
100
AcDbEntity
  8
0
100
AcDbBlockEnd
  0
BLOCK
  5
90
330
8F
100
AcDbEntity
  8
0
100
AcDbBlockBegin
  2
SW_CENTERMARKSYMBOL_0
 70
     0
 10
0.0
 20
0.0
 30
0.0
  3
SW_CENTERMARKSYMBOL_0
  1

  0
LINE
  5
92
330
8F
100
AcDbEntity
  8
FORMAT
 62
     0
100
AcDbLine
 10
0.0
 20
0.0
 30
0.0
 11
0.0
 21
2.5
 31
0.0
  0
LINE
  5
93
330
8F
100
AcDbEntity
  8
FORMAT
 62
     0
100
AcDbLine
 10
0.0
 20
0.0
 30
0.0
 11
-2.5
 21
0.0
 31
0.0
  0
LINE
  5
94
330
8F
100
AcDbEntity
  8
FORMAT
 62
     0
100
AcDbLine
 10
0.0
 20
0.0
 30
0.0
 11
0.0
 21
-2.5
 31
0.0
  0
LINE
  5
95
330
8F
100
AcDbEntity
  8
FORMAT
 62
     0
100
AcDbLine
 10
0.0
 20
0.0
 30
0.0
 11
2.5
 21
0.0
 31
0.0
  0
LINE
  5
96
330
8F
100
AcDbEntity
  8
FORMAT
 62
     0
100
AcDbLine
 10
0.0
 20
5.0
 30
0.0
 11
0.0
 21
96.5
 31
0.0
  0
LINE
  5
97
330
8F
100
AcDbEntity
  8
FORMAT
 62
     0
100
AcDbLine
 10
-5.0
 20
0.0
 30
0.0
 11
-96.5
 21
0.0
 31
0.0
  0
LINE
  5
98
330
8F
100
AcDbEntity
  8
FORMAT
 62
     0
100
AcDbLine
 10
0.0
 20
-5.0
 30
0.0
 11
0.0
 21
-96.5
 31
0.0
  0
LINE
  5
99
330
8F
100
AcDbEntity
  8
FORMAT
 62
     0
100
AcDbLine
 10
5.0
 20
0.0
 30
0.0
 11
96.5
 21
0.0
 31
0.0
  0
ENDBLK
  5
91
330
8F
100
AcDbEntity
  8
0
100
AcDbBlockEnd
  0
BLOCK
  5
9C
330
9B
100
AcDbEntity
  8
0
100
AcDbBlockBegin
  2
SW_CENTERMARKSYMBOL_1
 70
     0
 10
0.0
 20
0.0
 30
0.0
  3
SW_CENTERMARKSYMBOL_1
  1

  0
LINE
  5
9E
330
9B
100
AcDbEntity
  8
FORMAT
 62
     0
100
AcDbLine
 10
0.0
 20
0.0
 30
0.0
 11
0.0
 21
2.5
 31
0.0
  0
LINE
  5
9F
330
9B
100
AcDbEntity
  8
FORMAT
 62
     0
100
AcDbLine
 10
0.0
 20
0.0
 30
0.0
 11
-2.5
 21
0.0
 31
0.0
  0
LINE
  5
A0
330
9B
100
AcDbEntity
  8
FORMAT
 62
     0
100
AcDbLine
 10
0.0
 20
0.0
 30
0.0
 11
0.0
 21
-2.5
 31
0.0
  0
LINE
  5
A1
330
9B
100
AcDbEntity
  8
FORMAT
 62
     0
100
AcDbLine
 10
0.0
 20
0.0
 30
0.0
 11
2.5
 21
0.0
 31
0.0
  0
LINE
  5
A2
330
9B
100
AcDbEntity
  8
FORMAT
 62
     0
100
AcDbLine
 10
0.0
 20
5.0
 30
0.0
 11
0.0
 21
11.5
 31
0.0
  0
LINE
  5
A3
330
9B
100
AcDbEntity
  8
FORMAT
 62
     0
100
AcDbLine
 10
-5.0
 20
0.0
 30
0.0
 11
-11.5
 21
0.0
 31
0.0
  0
LINE
  5
A4
330
9B
100
AcDbEntity
  8
FORMAT
 62
     0
100
AcDbLine
 10
0.0
 20
-5.0
 30
0.0
 11
0.0
 21
-11.5
 31
0.0
  0
LINE
  5
A5
330
9B
100
AcDbEntity
  8
FORMAT
 62
     0
100
AcDbLine
 10
5.0
 20
0.0
 30
0.0
 11
11.5
 21
0.0
 31
0.0
  0
ENDBLK
  5
9D
330
9B
100
AcDbEntity
  8
0
100
AcDbBlockEnd
  0
BLOCK
  5
A8
330
A7
100
AcDbEntity
  8
0
100
AcDbBlockBegin
  2
SW_CENTERMARKSYMBOL_2
 70
     0
 10
0.0
 20
0.0
 30
0.0
  3
SW_CENTERMARKSYMBOL_2
  1

  0
LINE
  5
AA
330
A7
100
AcDbEntity
  8
FORMAT
 62
     0
100
AcDbLine
 10
0.0
 20
0.0
 30
0.0
 11
0.0
 21
2.5
 31
0.0
  0
LINE
  5
AB
330
A7
100
AcDbEntity
  8
FORMAT
 62
     0
100
AcDbLine
 10
0.0
 20
0.0
 30
0.0
 11
-2.5
 21
0.0
 31
0.0
  0
LINE
  5
AC
330
A7
100
AcDbEntity
  8
FORMAT
 62
     0
100
AcDbLine
 10
0.0
 20
0.0
 30
0.0
 11
0.0
 21
-2.5
 31
0.0
  0
LINE
  5
AD
330
A7
100
AcDbEntity
  8
FORMAT
 62
     0
100
AcDbLine
 10
0.0
 20
0.0
 30
0.0
 11
2.5
 21
0.0
 31
0.0
  0
LINE
  5
AE
330
A7
100
AcDbEntity
  8
FORMAT
 62
     0
100
AcDbLine
 10
0.0
 20
5.0
 30
0.0
 11
0.0
 21
11.5
 31
0.0
  0
LINE
  5
AF
330
A7
100
AcDbEntity
  8
FORMAT
 62
     0
100
AcDbLine
 10
-5.0
 20
0.0
 30
0.0
 11
-11.5
 21
0.0
 31
0.0
  0
LINE
  5
B0
330
A7
100
AcDbEntity
  8
FORMAT
 62
     0
100
AcDbLine
 10
0.0
 20
-5.0
 30
0.0
 11
0.0
 21
-11.5
 31
0.0
  0
LINE
  5
B1
330
A7
100
AcDbEntity
  8
FORMAT
 62
     0
100
AcDbLine
 10
5.0
 20
0.0
 30
0.0
 11
11.5
 21
0.0
 31
0.0
  0
ENDBLK
  5
A9
330
A7
100
AcDbEntity
  8
0
100
AcDbBlockEnd
  0
BLOCK
  5
B4
330
B3
100
AcDbEntity
  8
0
100
AcDbBlockBegin
  2
SW_CENTERMARKSYMBOL_3
 70
     0
 10
0.0
 20
0.0
 30
0.0
  3
SW_CENTERMARKSYMBOL_3
  1

  0
LINE
  5
B6
330
B3
100
AcDbEntity
  8
FORMAT
 62
     0
100
AcDbLine
 10
0.0
 20
0.0
 30
0.0
 11
0.0
 21
2.5
 31
0.0
  0
LINE
  5
B7
330
B3
100
AcDbEntity
  8
FORMAT
 62
     0
100
AcDbLine
 10
0.0
 20
0.0
 30
0.0
 11
-2.5
 21
0.0
 31
0.0
  0
LINE
  5
B8
330
B3
100
AcDbEntity
  8
FORMAT
 62
     0
100
AcDbLine
 10
0.0
 20
0.0
 30
0.0
 11
0.0
 21
-2.5
 31
0.0
  0
LINE
  5
B9
330
B3
100
AcDbEntity
  8
FORMAT
 62
     0
100
AcDbLine
 10
0.0
 20
0.0
 30
0.0
 11
2.5
 21
0.0
 31
0.0
  0
LINE
  5
BA
330
B3
100
AcDbEntity
  8
FORMAT
 62
     0
100
AcDbLine
 10
0.0
 20
5.0
 30
0.0
 11
0.0
 21
11.5
 31
0.0
  0
LINE
  5
BB
330
B3
100
AcDbEntity
  8
FORMAT
 62
     0
100
AcDbLine
 10
-5.0
 20
0.0
 30
0.0
 11
-11.5
 21
0.0
 31
0.0
  0
LINE
  5
BC
330
B3
100
AcDbEntity
  8
FORMAT
 62
     0
100
AcDbLine
 10
0.0
 20
-5.0
 30
0.0
 11
0.0
 21
-11.5
 31
0.0
  0
LINE
  5
BD
330
B3
100
AcDbEntity
  8
FORMAT
 62
     0
100
AcDbLine
 10
5.0
 20
0.0
 30
0.0
 11
11.5
 21
0.0
 31
0.0
  0
ENDBLK
  5
B5
330
B3
100
AcDbEntity
  8
0
100
AcDbBlockEnd
  0
BLOCK
  5
C0
330
BF
100
AcDbEntity
  8
0
100
AcDbBlockBegin
  2
SW_CENTERMARKSYMBOL_4
 70
     0
 10
0.0
 20
0.0
 30
0.0
  3
SW_CENTERMARKSYMBOL_4
  1

  0
LINE
  5
C2
330
BF
100
AcDbEntity
  8
FORMAT
 62
     0
100
AcDbLine
 10
0.0
 20
0.0
 30
0.0
 11
0.0
 21
2.5
 31
0.0
  0
LINE
  5
C3
330
BF
100
AcDbEntity
  8
FORMAT
 62
     0
100
AcDbLine
 10
0.0
 20
0.0
 30
0.0
 11
-2.5
 21
0.0
 31
0.0
  0
LINE
  5
C4
330
BF
100
AcDbEntity
  8
FORMAT
 62
     0
100
AcDbLine
 10
0.0
 20
0.0
 30
0.0
 11
0.0
 21
-2.5
 31
0.0
  0
LINE
  5
C5
330
BF
100
AcDbEntity
  8
FORMAT
 62
     0
100
AcDbLine
 10
0.0
 20
0.0
 30
0.0
 11
2.5
 21
0.0
 31
0.0
  0
LINE
  5
C6
330
BF
100
AcDbEntity
  8
FORMAT
 62
     0
100
AcDbLine
 10
0.0
 20
5.0
 30
0.0
 11
0.0
 21
11.5
 31
0.0
  0
LINE
  5
C7
330
BF
100
AcDbEntity
  8
FORMAT
 62
     0
100
AcDbLine
 10
-5.0
 20
0.0
 30
0.0
 11
-11.5
 21
0.0
 31
0.0
  0
LINE
  5
C8
330
BF
100
AcDbEntity
  8
FORMAT
 62
     0
100
AcDbLine
 10
0.0
 20
-5.0
 30
0.0
 11
0.0
 21
-11.5
 31
0.0
  0
LINE
  5
C9
330
BF
100
AcDbEntity
  8
FORMAT
 62
     0
100
AcDbLine
 10
5.0
 20
0.0
 30
0.0
 11
11.5
 21
0.0
 31
0.0
  0
ENDBLK
  5
C1
330
BF
100
AcDbEntity
  8
0
100
AcDbBlockEnd
  0
ENDSEC
  0
SECTION
  2
ENTITIES
  0
CIRCLE
  5
83
330
1F
100
AcDbEntity
  8
0
  6
Continuous
 62
     7
370
    25
100
AcDbCircle
 10
137.8667640332
 20
31.0638469371
 30
0.0
 40
9.999999999999972
  0
CIRCLE
  5
84
330
1F
100
AcDbEntity
  8
0
  6
Continuous
 62
     7
370
    25
100
AcDbCircle
 10
137.8667640332
 20
176.0638469371
 30
0.0
 40
10.0
  0
CIRCLE
  5
85
330
1F
100
AcDbEntity
  8
0
  6
Continuous
 62
     7
370
    25
100
AcDbCircle
 10
137.8667640332
 20
103.5638469371
 30
0.0
 40
93.0
  0
CIRCLE
  5
86
330
1F
100
AcDbEntity
  8
0
  6
Continuous
 62
     7
370
    25
100
AcDbCircle
 10
137.8667640332
 20
103.5638469371
 30
0.0
 40
47.00000000000003
  0
CIRCLE
  5
87
330
1F
100
AcDbEntity
  8
0
  6
Continuous
 62
     7
370
    25
100
AcDbCircle
 10
210.3667640332
 20
103.5638469371
 30
0.0
 40
10.0
  0
CIRCLE
  5
88
330
1F
100
AcDbEntity
  8
0
  6
Continuous
 62
     7
370
    25
100
AcDbCircle
 10
65.3667640332
 20
103.5638469371
 30
0.0
 40
10.0
  0
CIRCLE
  5
89
330
1F
100
AcDbEntity
  8
0
  6
Continuous
 62
     7
370
    25
100
AcDbCircle
 10
137.8667640332
 20
103.5638469371
 30
0.0
 40
46.0
  0
CIRCLE
  5
8A
330
1F
100
AcDbEntity
  8
0
  6
Continuous
 62
     7
370
    25
100
AcDbCircle
 10
137.8667640332
 20
103.5638469371
 30
0.0
 40
94.0
  0
CIRCLE
  5
8B
330
1F
100
AcDbEntity
  8
0
  6
Continuous
 62
     7
370
    25
100
AcDbCircle
 10
137.8667640332
 20
176.0638469371
 30
0.0
 40
9.0
  0
CIRCLE
  5
8C
330
1F
100
AcDbEntity
  8
0
  6
Continuous
 62
     7
370
    25
100
AcDbCircle
 10
65.3667640332
 20
103.5638469371
 30
0.0
 40
9.0
  0
CIRCLE
  5
8D
330
1F
100
AcDbEntity
  8
0
  6
Continuous
 62
     7
370
    25
100
AcDbCircle
 10
210.3667640332
 20
103.5638469371
 30
0.0
 40
9.0
  0
CIRCLE
  5
8E
330
1F
100
AcDbEntity
  8
0
  6
Continuous
 62
     7
370
    25
100
AcDbCircle
 10
137.8667640332
 20
31.0638469371
 30
0.0
 40
8.999999999999972
  0
INSERT
  5
9A
330
1F
100
AcDbEntity
  8
FORMAT
 62
     7
100
AcDbBlockReference
  2
SW_CENTERMARKSYMBOL_0
 10
137.8667640332
 20
103.5638469371
 30
0.0
  0
INSERT
  5
A6
330
1F
100
AcDbEntity
  8
FORMAT
 62
     7
100
AcDbBlockReference
  2
SW_CENTERMARKSYMBOL_1
 10
137.8667640332
 20
176.0638469371
 30
0.0
  0
INSERT
  5
B2
330
1F
100
AcDbEntity
  8
FORMAT
 62
     7
100
AcDbBlockReference
  2
SW_CENTERMARKSYMBOL_2
 10
210.3667640332
 20
103.5638469371
 30
0.0
  0
INSERT
  5
BE
330
1F
100
AcDbEntity
  8
FORMAT
 62
     7
100
AcDbBlockReference
  2
SW_CENTERMARKSYMBOL_3
 10
137.8667640332
 20
31.0638469371
 30
0.0
  0
INSERT
  5
CA
330
1F
100
AcDbEntity
  8
FORMAT
 62
     7
100
AcDbBlockReference
  2
SW_CENTERMARKSYMBOL_4
 10
65.3667640332
 20
103.5638469371
 30
0.0
  0
LINE
  5
CB
330
1F
100
AcDbEntity
  8
0
  6
Continuous
 62
     7
370
    25
100
AcDbLine
 10
-43.4300855681
 20
197.5638469371
 30
0.0
 11
-59.4300855681
 21
197.5638469371
 31
0.0
  0
LINE
  5
CC
330
1F
100
AcDbEntity
  8
0
  6
Continuous
 62
     7
370
    25
100
AcDbLine
 10
-59.4300855681
 20
9.5638469371
 30
0.0
 11
-43.4300855681
 21
9.5638469371
 31
0.0
  0
ARC
  5
CD
330
1F
100
AcDbEntity
  8
0
  6
Continuous
 62
     7
370
    25
100
AcDbCircle
 10
-43.4300855681
 20
10.5638469371
 30
0.0
 40
1.000000000000002
100
AcDbArc
 50
270.0
 51
0.0
  0
ARC
  5
CE
330
1F
100
AcDbEntity
  8
0
  6
Continuous
 62
     7
370
    25
100
AcDbCircle
 10
-43.4300855681
 20
196.5638469371
 30
0.0
 40
1.0
100
AcDbArc
 50
0.0
 51
90.0
  0
ARC
  5
CF
330
1F
100
AcDbEntity
  8
0
  6
Continuous
 62
     7
370
    25
100
AcDbCircle
 10
-59.4300855681
 20
10.5638469371
 30
0.0
 40
1.000000000000002
100
AcDbArc
 50
180.0
 51
270.0
  0
ARC
  5
D0
330
1F
100
AcDbEntity
  8
0
  6
Continuous
 62
     7
370
    25
100
AcDbCircle
 10
-59.4300855681
 20
196.5638469371
 30
0.0
 40
1.0
100
AcDbArc
 50
90.0
 51
180.0
  0
LINE
  5
D1
330
1F
100
AcDbEntity
  8
0
  6
Continuous
 62
     7
370
    25
100
AcDbLine
 10
-42.4300855681
 20
103.5638469371
 30
0.0
 11
-42.4300855681
 21
10.5638469371
 31
0.0
  0
LINE
  5
D2
330
1F
100
AcDbEntity
  8
0
  6
Continuous
 62
     7
370
    25
100
AcDbLine
 10
-42.4300855681
 20
196.5638469371
 30
0.0
 11
-42.4300855681
 21
103.5638469371
 31
0.0
  0
LINE
  5
D3
330
1F
100
AcDbEntity
  8
0
  6
Continuous
 62
     7
370
    25
100
AcDbLine
 10
-60.4300855681
 20
103.5638469371
 30
0.0
 11
-60.4300855681
 21
196.5638469371
 31
0.0
  0
LINE
  5
D4
330
1F
100
AcDbEntity
  8
0
  6
Continuous
 62
     7
370
    25
100
AcDbLine
 10
-60.4300855681
 20
10.5638469371
 30
0.0
 11
-60.4300855681
 21
103.5638469371
 31
0.0
  0
LINE
  5
D5
330
1F
100
AcDbEntity
  8
0
  6
Continuous
 62
     1
370
    25
100
AcDbLine
 10
-59.4300855681
 20
103.5638469371
 30
0.0
 11
-59.4300855681
 21
9.5638469371
 31
0.0
  0
LINE
  5
D6
330
1F
100
AcDbEntity
  8
0
  6
Continuous
 62
     1
370
    25
100
AcDbLine
 10
-59.4300855681
 20
197.5638469371
 30
0.0
 11
-59.4300855681
 21
103.5638469371
 31
0.0
  0
LINE
  5
D7
330
1F
100
AcDbEntity
  8
0
  6
Continuous
 62
     1
370
    25
100
AcDbLine
 10
-43.4300855681
 20
103.5638469371
 30
0.0
 11
-43.4300855681
 21
197.5638469371
 31
0.0
  0
LINE
  5
D8
330
1F
100
AcDbEntity
  8
0
  6
Continuous
 62
     1
370
    25
100
AcDbLine
 10
-43.4300855681
 20
9.5638469371
 30
0.0
 11
-43.4300855681
 21
103.5638469371
 31
0.0
  0
LINE
  5
D9
330
1F
100
AcDbEntity
  8
0
  6
Continuous
 62
     7
370
    25
100
AcDbLine
 10
342.1028660691
 20
9.5638469371
 30
0.0
 11
358.1028660691
 21
9.5638469371
 31
0.0
  0
LINE
  5
DA
330
1F
100
AcDbEntity
  8
0
  6
Continuous
 62
     7
370
    25
100
AcDbLine
 10
358.1028660691
 20
197.5638469371
 30
0.0
 11
342.1028660691
 21
197.5638469371
 31
0.0
  0
ARC
  5
DB
330
1F
100
AcDbEntity
  8
0
  6
Continuous
 62
     7
370
    25
100
AcDbCircle
 10
342.1028660691
 20
196.5638469371
 30
0.0
 40
1.0
100
AcDbArc
 50
90.0
 51
180.0
  0
ARC
  5
DC
330
1F
100
AcDbEntity
  8
0
  6
Continuous
 62
     7
370
    25
100
AcDbCircle
 10
342.1028660691
 20
10.5638469371
 30
0.0
 40
1.000000000000002
100
AcDbArc
 50
180.0
 51
270.0
  0
ARC
  5
DD
330
1F
100
AcDbEntity
  8
0
  6
Continuous
 62
     7
370
    25
100
AcDbCircle
 10
358.1028660691
 20
196.5638469371
 30
0.0
 40
1.0
100
AcDbArc
 50
0.0
 51
90.0
  0
ARC
  5
DE
330
1F
100
AcDbEntity
  8
0
  6
Continuous
 62
     7
370
    25
100
AcDbCircle
 10
358.1028660691
 20
10.5638469371
 30
0.0
 40
1.000000000000002
100
AcDbArc
 50
270.0
 51
0.0
  0
LINE
  5
DF
330
1F
100
AcDbEntity
  8
0
  6
Continuous
 62
     7
370
    25
100
AcDbLine
 10
341.1028660691
 20
10.5638469371
 30
0.0
 11
341.1028660691
 21
196.5638469371
 31
0.0
  0
LINE
  5
E0
330
1F
100
AcDbEntity
  8
0
  6
Continuous
 62
     7
370
    25
100
AcDbLine
 10
359.1028660691
 20
196.5638469371
 30
0.0
 11
359.1028660691
 21
10.5638469371
 31
0.0
  0
LINE
  5
E1
330
1F
100
AcDbEntity
  8
0
  6
Continuous
 62
     1
370
    25
100
AcDbLine
 10
358.1028660691
 20
9.5638469371
 30
0.0
 11
358.1028660691
 21
197.5638469371
 31
0.0
  0
LINE
  5
E2
330
1F
100
AcDbEntity
  8
0
  6
Continuous
 62
     1
370
    25
100
AcDbLine
 10
342.1028660691
 20
197.5638469371
 30
0.0
 11
342.1028660691
 21
9.5638469371
 31
0.0
  0
LINE
  5
E3
330
1F
100
AcDbEntity
  8
0
  6
Continuous
 62
     7
370
    25
100
AcDbLine
 10
231.8667640332
 20
271.4889082467
 30
0.0
 11
231.8667640332
 21
287.4889082467
 31
0.0
  0
LINE
  5
E4
330
1F
100
AcDbEntity
  8
0
  6
Continuous
 62
     7
370
    25
100
AcDbLine
 10
43.8667640332
 20
287.4889082467
 30
0.0
 11
43.8667640332
 21
271.4889082467
 31
0.0
  0
ARC
  5
E5
330
1F
100
AcDbEntity
  8
0
  6
Continuous
 62
     7
370
    25
100
AcDbCircle
 10
44.8667640332
 20
271.4889082467
 30
0.0
 40
1.0
100
AcDbArc
 50
180.0
 51
270.0
  0
ARC
  5
E6
330
1F
100
AcDbEntity
  8
0
  6
Continuous
 62
     7
370
    25
100
AcDbCircle
 10
230.8667640332
 20
271.4889082467
 30
0.0
 40
1.0
100
AcDbArc
 50
270.0
 51
0.0
  0
ARC
  5
E7
330
1F
100
AcDbEntity
  8
0
  6
Continuous
 62
     7
370
    25
100
AcDbCircle
 10
44.8667640332
 20
287.4889082467
 30
0.0
 40
1.0
100
AcDbArc
 50
90.0
 51
180.0
  0
ARC
  5
E8
330
1F
100
AcDbEntity
  8
0
  6
Continuous
 62
     7
370
    25
100
AcDbCircle
 10
230.8667640332
 20
287.4889082467
 30
0.0
 40
1.0
100
AcDbArc
 50
0.0
 51
90.0
  0
LINE
  5
E9
330
1F
100
AcDbEntity
  8
0
  6
Continuous
 62
     7
370
    25
100
AcDbLine
 10
230.8667640332
 20
270.4889082467
 30
0.0
 11
44.8667640332
 21
270.4889082467
 31
0.0
  0
LINE
  5
EA
330
1F
100
AcDbEntity
  8
0
  6
Continuous
 62
     7
370
    25
100
AcDbLine
 10
44.8667640332
 20
288.4889082467
 30
0.0
 11
230.8667640332
 21
288.4889082467
 31
0.0
  0
LINE
  5
EB
330
1F
100
AcDbEntity
  8
0
  6
Continuous
 62
     1
370
    25
100
AcDbLine
 10
231.8667640332
 20
287.4889082467
 30
0.0
 11
43.8667640332
 21
287.4889082467
 31
0.0
  0
LINE
  5
EC
330
1F
100
AcDbEntity
  8
0
  6
Continuous
 62
     1
370
    25
100
AcDbLine
 10
43.8667640332
 20
271.4889082467
 30
0.0
 11
231.8667640332
 21
271.4889082467
 31
0.0
  0
LINE
  5
ED
330
1F
100
AcDbEntity
  8
0
  6
Continuous
 62
     7
370
    25
100
AcDbLine
 10
43.8667640332
 20
-122.5597926879
 30
0.0
 11
43.8667640332
 21
-138.5597926879
 31
0.0
  0
LINE
  5
EE
330
1F
100
AcDbEntity
  8
0
  6
Continuous
 62
     7
370
    25
100
AcDbLine
 10
231.8667640332
 20
-138.5597926879
 30
0.0
 11
231.8667640332
 21
-122.5597926879
 31
0.0
  0
ARC
  5
EF
330
1F
100
AcDbEntity
  8
0
  6
Continuous
 62
     7
370
    25
100
AcDbCircle
 10
230.8667640332
 20
-122.5597926879
 30
0.0
 40
1.0
100
AcDbArc
 50
0.0
 51
90.0
  0
ARC
  5
F0
330
1F
100
AcDbEntity
  8
0
  6
Continuous
 62
     7
370
    25
100
AcDbCircle
 10
44.8667640332
 20
-122.5597926879
 30
0.0
 40
1.0
100
AcDbArc
 50
90.0
 51
180.0
  0
ARC
  5
F1
330
1F
100
AcDbEntity
  8
0
  6
Continuous
 62
     7
370
    25
100
AcDbCircle
 10
230.8667640332
 20
-138.5597926879
 30
0.0
 40
1.0
100
AcDbArc
 50
270.0
 51
0.0
  0
ARC
  5
F2
330
1F
100
AcDbEntity
  8
0
  6
Continuous
 62
     7
370
    25
100
AcDbCircle
 10
44.8667640332
 20
-138.5597926879
 30
0.0
 40
1.0
100
AcDbArc
 50
180.0
 51
270.0
  0
LINE
  5
F3
330
1F
100
AcDbEntity
  8
0
  6
Continuous
 62
     7
370
    25
100
AcDbLine
 10
44.8667640332
 20
-121.5597926879
 30
0.0
 11
230.8667640332
 21
-121.5597926879
 31
0.0
  0
LINE
  5
F4
330
1F
100
AcDbEntity
  8
0
  6
Continuous
 62
     7
370
    25
100
AcDbLine
 10
230.8667640332
 20
-139.5597926879
 30
0.0
 11
44.8667640332
 21
-139.5597926879
 31
0.0
  0
LINE
  5
F5
330
1F
100
AcDbEntity
  8
0
  6
Continuous
 62
     1
370
    25
100
AcDbLine
 10
43.8667640332
 20
-138.5597926879
 30
0.0
 11
231.8667640332
 21
-138.5597926879
 31
0.0
  0
LINE
  5
F6
330
1F
100
AcDbEntity
  8
0
  6
Continuous
 62
     1
370
    25
100
AcDbLine
 10
231.8667640332
 20
-122.5597926879
 30
0.0
 11
43.8667640332
 21
-122.5597926879
 31
0.0
  0
SPLINE
  5
F7
330
1F
100
AcDbEntity
  8
0
  6
Continuous
 62
     7
370
    25
100
AcDbSpline
210
0.0
220
0.0
230
1.0
 70
     8
 71
     3
 72
    77
 73
    73
 74
     0
 42
0.00000001
 43
0.00000001
 40
0.0
 40
0.0
 40
0.0
 40
0.0
 40
0.0083561046227795
 40
0.022762057501224
 40
0.0371826658826387
 40
0.05162000339419
 40
0.0660749571235797
 40
0.0805473437297004
 40
0.0950361170756175
 40
0.1095396189942111
 40
0.1240558298684277
 40
0.1385825879488694
 40
0.1531177606802788
 40
0.1676593638400254
 40
0.1822056329978873
 40
0.1967550564221399
 40
0.2113063798888368
 40
0.2258585930761954
 40
0.2404107465642531
 40
0.2549622370820545
 40
0.2695126739461744
 40
0.284061790660294
 40
0.2986094207997392
 40
0.3131554773595349
 40
0.3276999355040309
 40
0.3422428184413308
 40
0.3567841860452781
 40
0.3713241258208161
 40
0.3858627458238421
 40
0.4004001691835725
 40
0.4149365299208089
 40
0.4294719698019203
 40
0.4440066360114459
 40
0.4585406794641707
 40
0.4730742536095295
 40
0.4876075136072527
 40
0.5021406157737145
 40
0.5166737172138329
 40
0.5312069411275661
 40
0.54574042743029
 40
0.5602743342840536
 40
0.5748088197308726
 40
0.5893440412658106
 40
0.6038801551976222
 40
0.6184173157030866
 40
0.6329556734661465
 40
0.6474953737698783
 40
0.6620365538803482
 40
0.6765793395262342
 40
0.6911238402366985
 40
0.705670143253483
 40
0.7202183056838726
 40
0.7347683445141096
 40
0.7493202240670256
 40
0.7638738404779901
 40
0.7784290028039035
 40
0.7929854105060307
 40
0.8075426273103997
 40
0.8220999085464569
 40
0.8366562884945524
 40
0.8512106621613875
 40
0.8657616645016804
 40
0.8803076591747452
 40
0.8948467486549343
 40
0.909376816180479
 40
0.923895610487578
 40
0.9384008821667176
 40
0.9528905745616371
 40
0.9673630617161003
 40
0.9818174116681976
 40
0.9962536382107948
 40
1.0
 40
1.0
 40
1.0
 40
1.0
 10
389.3042858110343
 20
-15.53496592960139
 30
0.0
 10
388.8751193590459
 20
-15.39882930528537
 30
0.0
 10
387.7060684796298
 20
-15.02799267618718
 30
0.0
 10
385.7213516675436
 20
-14.58705584745661
 30
0.0
 10
383.3615473329184
 20
-14.19827532615986
 30
0.0
 10
380.9380041226615
 20
-13.96602162122201
 30
0.0
 10
378.4588345618977
 20
-13.88230913450461
 30
0.0
 10
375.9272706919563
 20
-13.94977257503628
 30
0.0
 10
373.348079778377
 20
-14.16784119066665
 30
0.0
 10
370.725812060801
 20
-14.5364212349027
 30
0.0
 10
368.0652325312346
 20
-15.05489181157525
 30
0.0
 10
365.3711644772492
 20
-15.722371265219
 30
0.0
 10
362.6484938589877
 20
-16.53765265200813
 30
0.0
 10
359.9021364043699
 20
-17.49923476707631
 30
0.0
 10
357.1370216114775
 20
-18.6053310340072
 30
0.0
 10
354.3580787457933
 20
-19.85388523986122
 30
0.0
 10
351.5702276579239
 20
-21.24258461136806
 30
0.0
 10
348.7783823519813
 20
-22.76886630969356
 30
0.0
 10
345.9874362482498
 20
-24.42993091678719
 30
0.0
 10
343.2022546786745
 20
-26.22275347044468
 30
0.0
 10
340.4276615492863
 20
-28.144099299859
 30
0.0
 10
337.6684459732027
 20
-30.19052564684321
 30
0.0
 10
334.9293617257759
 20
-32.35838526707134
 30
0.0
 10
332.2151222316946
 20
-34.64383218404831
 30
0.0
 10
329.5303950141068
 20
-37.04282747100893
 30
0.0
 10
326.8797956673895
 20
-39.55114520871462
 30
0.0
 10
324.2678814353828
 20
-42.16437872100074
 30
0.0
 10
321.6991444836029
 20
-44.8779471528379
 30
0.0
 10
319.1780049523412
 20
-47.68710242722361
 30
0.0
 10
316.7088038714022
 20
-50.5869365961657
 30
0.0
 10
314.2957960090628
 20
-53.57238958590602
 30
0.0
 10
311.9431427191493
 20
-56.63825732597107
 30
0.0
 10
309.6549048418157
 20
-59.77920024445141
 30
0.0
 10
307.4350357061068
 20
-62.98975210714003
 30
0.0
 10
305.2873742758894
 20
-66.2643291750169
 30
0.0
 10
303.2156384751692
 20
-69.59723965265616
 30
0.0
 10
301.2234187244432
 20
-72.9826933983507
 30
0.0
 10
299.3141732231427
 20
-76.41480915648745
 30
0.0
 10
297.4912209286091
 20
-79.88762582781617
 30
0.0
 10
295.7577349175579
 20
-83.39511423340183
 30
0.0
 10
294.1167357851969
 20
-86.93119048671048
 30
0.0
 10
292.5710875132443
 20
-90.48972536335944
 30
0.0
 10
291.1234935192837
 20
-94.06455349528449
 30
0.0
 10
289.7764923026145
 20
-97.64948403725892
 30
0.0
 10
288.5324534542267
 20
-101.238311324998
 30
0.0
 10
287.3935740399872
 20
-104.8248254794955
 30
0.0
 10
286.3618753619234
 20
-108.4028229081279
 30
0.0
 10
285.4392000970722
 20
-111.9661166478621
 30
0.0
 10
284.6272098059666
 20
-115.5085464901292
 30
0.0
 10
283.9273827928054
 20
-119.0239888207915
 30
0.0
 10
283.3410122858613
 20
-122.5063661026748
 30
0.0
 10
282.8692048888228
 20
-125.9496559232463
 30
0.0
 10
282.5128792305013
 20
-129.3478995276984
 30
0.0
 10
282.2727647109026
 20
-132.6952097601874
 30
0.0
 10
282.1494002053945
 20
-135.9857783467127
 30
0.0
 10
282.1431325467016
 20
-139.2138824766076
 30
0.0
 10
282.2541145568677
 20
-142.3738906827355
 30
0.0
 10
282.4823016120139
 20
-145.4602579560748
 30
0.0
 10
282.8274456106373
 20
-148.4675302577388
 30
0.0
 10
283.2890884284026
 20
-151.39035702267
 30
0.0
 10
283.8665564256393
 20
-154.2235061132618
 30
0.0
 10
284.5589538402508
 20
-156.961870465335
 30
0.0
 10
285.3651506846182
 20
-159.6004731668457
 30
0.0
 10
286.2837779379326
 20
-162.1344724061544
 30
0.0
 10
287.3131967925673
 20
-164.5592094062549
 30
0.0
 10
288.4515697769973
 20
-166.8701181446345
 30
0.0
 10
289.6965669753978
 20
-169.0631745532753
 30
0.0
 10
291.0464590866956
 20
-171.133357420912
 30
0.0
 10
292.4960823331813
 20
-173.0805320583965
 30
0.0
 10
294.0519574608797
 20
-174.8876791850188
 30
0.0
 10
295.2758658200642
 20
-176.1796299123843
 30
0.0
 10
296.0099384967365
 20
-176.8248195291588
 30
0.0
 10
296.1611876905367
 20
-176.9577551532278
 30
0.0
  0
LINE
  5
F8
330
1F
100
AcDbEntity
  8
0
  6
Continuous
 62
     7
370
    25
100
AcDbLine
 10
407.2218012151
 20
-24.9288019274
 30
0.0
 11
395.9080927161
 21
-18.3975370328
 31
0.0
  0
LINE
  5
F9
330
1F
100
AcDbEntity
  8
0
  6
Continuous
 62
     7
370
    25
100
AcDbLine
 10
301.9157318483
 20
-181.2147231604
 30
0.0
 11
313.2294403473
 21
-187.745988055
 31
0.0
  0
SPLINE
  5
FA
330
1F
100
AcDbEntity
  8
0
  6
Continuous
 62
     7
370
    25
100
AcDbSpline
210
0.0
220
0.0
230
1.0
 70
     8
 71
     3
 72
    61
 73
    57
 74
     0
 42
0.00000001
 43
0.00000001
 40
0.0
 40
0.0
 40
0.0
 40
0.0
 40
0.0084962604675464
 40
0.0271729755974214
 40
0.0458684103660852
 40
0.0645853779160919
 40
0.0833251478248991
 40
0.1020875845887433
 40
0.1208714096471534
 40
0.1396745242727727
 40
0.1584943362065249
 40
0.1773280482934848
 40
0.1961728859774274
 40
0.2150262570779299
 40
0.2338858489961594
 40
0.2527496748777343
 40
0.2716160822734018
 40
0.2904837369963538
 40
0.3093514065162571
 40
0.3282182649323321
 40
0.3470837913552723
 40
0.3659476285965109
 40
0.3848095515512765
 40
0.4036694400614099
 40
0.4225272562073965
 40
0.4413830256870058
 40
0.4602368227975816
 40
0.4790887584983444
 40
0.4979389710455763
 40
0.5167876187399262
 40
0.5356348743834528
 40
0.5544809211043703
 40
0.5733259492637535
 40
0.5921701542083055
 40
0.6110137346753485
 40
0.62985689169064
 40
0.6486998278267537
 40
0.6675427467102985
 40
0.686385813473321
 40
0.7052292040518267
 40
0.7240731235053017
 40
0.7429177767734777
 40
0.7617633681397191
 40
0.7806101004284429
 40
0.7994581738156147
 40
0.8183077841131928
 40
0.8371591203590993
 40
0.8560123615073288
 40
0.874867671967877
 40
0.8937251956930804
 40
0.9125850484471326
 40
0.931447307831678
 40
0.9503120005788118
 40
0.969179086574538
 40
0.9880484390596945
 40
1.0
 40
1.0
 40
1.0
 40
1.0
 10
319.9342219390321
 20
-190.6394396999093
 30
0.0
 10
320.2701665394125
 20
-190.7474867738186
 30
0.0
 10
321.3445938669516
 20
-191.0930459188008
 30
0.0
 10
323.2305737066049
 20
-191.5183551666136
 30
0.0
 10
325.5847550732064
 20
-191.9203723195958
 30
0.0
 10
328.0037674526942
 20
-192.1642735484191
 30
0.0
 10
330.4785351458117
 20
-192.2601135277731
 30
0.0
 10
333.0061035226069
 20
-192.2046754254382
 30
0.0
 10
335.5816479039294
 20
-191.9986566795991
 30
0.0
 10
338.2006477039357
 20
-191.6420856292069
 30
0.0
 10
340.8583409788508
 20
-191.1355685549368
 30
0.0
 10
343.5499114432125
 20
-190.4799590265317
 30
0.0
 10
346.2704762622546
 20
-189.6764403672036
 30
0.0
 10
349.0151215881045
 20
-188.7264902279177
 30
0.0
 10
351.778918404263
 20
-187.6318730514282
 30
0.0
 10
354.5569370551381
 20
-186.3946239715397
 30
0.0
 10
357.3442566624043
 20
-185.0170357256169
 30
0.0
 10
360.1359627312425
 20
-183.5016514340548
 30
0.0
 10
362.9271597492374
 20
-181.851252092358
 30
0.0
 10
365.7129800177341
 20
-180.0688449501469
 30
0.0
 10
368.4885960358889
 20
-178.1576483477209
 30
0.0
 10
371.2492160654068
 20
-176.1210884464959
 30
0.0
 10
373.9900833294324
 20
-173.9627963583244
 30
0.0
 10
376.7064809806692
 20
-171.6866023858831
 30
0.0
 10
379.3937376111758
 20
-169.2965302490962
 30
0.0
 10
382.0472332443504
 20
-166.7967911457046
 30
0.0
 10
384.6624057283979
 20
-164.1917775407312
 30
0.0
 10
387.2347574429058
 20
-161.4860566174602
 30
0.0
 10
389.7598622313026
 20
-158.6843633516236
 30
0.0
 10
392.2333724778427
 20
-155.7915931920912
 30
0.0
 10
394.651026255853
 20
-152.8127943468923
 30
0.0
 10
397.0086544826557
 20
-149.7531596842751
 30
0.0
 10
399.302188024943
 20
-146.6180182659282
 30
0.0
 10
401.5276647059587
 20
-143.4128265344247
 30
0.0
 10
403.6812361724199
 20
-140.1431591801909
 30
0.0
 10
405.7591745847486
 20
-136.8146997153121
 30
0.0
 10
407.757879098661
 20
-133.4332307832236
 30
0.0
 10
409.6738807817655
 20
-130.0046266110917
 30
0.0
 10
411.5038492601298
 20
-126.5348424038638
 30
0.0
 10
413.2445995930082
 20
-123.029902285278
 30
0.0
 10
414.893098761639
 20
-119.4958862783755
 30
0.0
 10
416.4464701483777
 20
-115.9389202590647
 30
0.0
 10
417.9019973377865
 20
-112.365167097753
 30
0.0
 10
419.2571284924765
 20
-108.7808159980005
 30
0.0
 10
420.5094803983678
 20
-105.1920718213458
 30
0.0
 10
421.6568420155062
 20
-101.6051445320155
 30
0.0
 10
422.6971781056375
 20
-98.02623847998557
 30
0.0
 10
423.6286307849613
 20
-94.46154281059444
 30
0.0
 10
424.4495270404208
 20
-90.91721845474574
 30
0.0
 10
425.1583622492294
 20
-87.3993989580816
 30
0.0
 10
425.7538716281447
 20
-83.91414104756268
 30
0.0
 10
426.2347719815042
 20
-80.4675645554458
 30
0.0
 10
426.6007329098331
 20
-77.065287625915
 30
0.0
 10
426.8487578636205
 20
-73.71449494661668
 30
0.0
 10
426.9698366253309
 20
-70.81937107440162
 30
0.0
 10
426.9818809506504
 20
-69.05759099081905
 30
0.0
 10
426.9865514315689
 20
-68.37441779144986
 30
0.0
  0
SPLINE
  5
FB
330
1F
100
AcDbEntity
  8
0
  6
Continuous
 62
     7
370
    25
100
AcDbSpline
210
0.0
220
0.0
230
1.0
 70
     8
 71
     3
 72
    24
 73
    20
 74
     0
 42
0.00000001
 43
0.00000001
 40
0.0
 40
0.0
 40
0.0
 40
0.0
 40
0.0333710185812295
 40
0.0967330710791492
 40
0.1601030648634851
 40
0.2234729993860828
 40
0.2868386653753764
 40
0.3501951654361423
 40
0.4135364637464337
 40
0.4768553430310844
 40
0.5401434578961599
 40
0.6033915306099231
 40
0.6665897367343324
 40
0.7297283176906116
 40
0.7927984300759683
 40
0.8557931946704294
 40
0.9187088453114358
 40
0.9815458122101369
 40
0.9999999999999999
 40
0.9999999999999999
 40
0.9999999999999999
 40
0.9999999999999999
 10
426.9865514315689
 20
-68.37441779144986
 30
0.0
 10
426.9832814827406
 20
-67.81029703210059
 30
0.0
 10
426.9738028331254
 20
-66.1750717428716
 30
0.0
 10
426.8684911071136
 20
-63.52061197676773
 30
0.0
 10
426.632203798814
 20
-60.43975757082762
 30
0.0
 10
426.2773916096594
 20
-57.43922342397518
 30
0.0
 10
425.8065528024838
 20
-54.52332521120584
 30
0.0
 10
425.2198378900267
 20
-51.69757968908149
 30
0.0
 10
424.5183057120975
 20
-48.96700499848452
 30
0.0
 10
423.7030664863947
 20
-46.33658851829016
 30
0.0
 10
422.7755197348284
 20
-43.81115410959155
 30
0.0
 10
421.737321309393
 20
-41.39534945903166
 30
0.0
 10
420.5903333023122
 20
-39.09372068596416
 30
0.0
 10
419.3368955090134
 20
-36.91028811771714
 30
0.0
 10
417.9787973877672
 20
-34.84999920747661
 30
0.0
 10
416.5210713562245
 20
-32.91316321633325
 30
0.0
 10
414.9577694375669
 20
-31.11603771624269
 30
0.0
 10
413.7086233196809
 20
-29.81406582890212
 30
0.0
 10
412.9511573994432
 20
-29.15662320945536
 30
0.0
 10
412.7792024261125
 20
-29.00737487355941
 30
0.0
  0
SPLINE
  5
FC
330
1F
100
AcDbEntity
  8
0
  6
Continuous
 62
     7
370
    25
100
AcDbSpline
210
0.0
220
0.0
230
1.0
 70
     8
 71
     3
 72
    19
 73
    15
 74
     0
 42
0.00000001
 43
0.00000001
 40
0.0
 40
0.0
 40
0.0
 40
0.0
 40
0.01639742393527
 40
0.1074058002695864
 40
0.1981092398596005
 40
0.2884575548296526
 40
0.3784561290004702
 40
0.4681476067952561
 40
0.5575922891616889
 40
0.6468532876088977
 40
0.7359877348689231
 40
0.8250428888712197
 40
0.91405537536987
 40
0.9999999999999999
 40
0.9999999999999999
 40
0.9999999999999999
 40
0.9999999999999999
 10
374.3428818803802
 20
-61.74005014081531
 30
0.0
 10
374.4155673985881
 20
-61.79954491991641
 30
0.0
 10
374.8916693937514
 20
-62.18924542326638
 30
0.0
 10
375.6845754828534
 20
-63.04172965657801
 30
0.0
 10
376.7110394732873
 20
-64.30000872331692
 30
0.0
 10
377.6306624177675
 20
-65.69619472908434
 30
0.0
 10
378.4505592671412
 20
-67.20910341594744
 30
0.0
 10
379.1656515853479
 20
-68.8375301357735
 30
0.0
 10
379.7745951340291
 20
-70.57480306144886
 30
0.0
 10
380.2751032066915
 20
-72.4156124132819
 30
0.0
 10
380.6662528417549
 20
-74.35338375853155
 30
0.0
 10
380.9438064901654
 20
-76.38336597450386
 30
0.0
 10
381.114798990365
 20
-78.46839123600724
 30
0.0
 10
381.135675685969
 20
-79.91159220373332
 30
0.0
 10
381.145930998003
 20
-80.62053946879054
 30
0.0
  0
SPLINE
  5
FD
330
1F
100
AcDbEntity
  8
0
  6
Continuous
 62
     7
370
    25
100
AcDbSpline
210
0.0
220
0.0
230
1.0
 70
     8
 71
     3
 72
    46
 73
    42
 74
     0
 42
0.00000001
 43
0.00000001
 40
0.0
 40
0.0
 40
0.0
 40
0.0
 40
0.0139168109300507
 40
0.0404224569273158
 40
0.0669371851594762
 40
0.0934589519274495
 40
0.1199887734699198
 40
0.146526941160536
 40
0.173073239928312
 40
0.1996271094311766
 40
0.2261877594617665
 40
0.2527542506929125
 40
0.2793255497815012
 40
0.3059005658724574
 40
0.3324781738789591
 40
0.3590572286079395
 40
0.3856365728320988
 40
0.4122147468352191
 40
0.4387904889285035
 40
0.4653626300306999
 40
0.4919300071806221
 40
0.518491474875695
 40
0.5450459243105826
 40
0.5715923141874171
 40
0.5981297179886171
 40
0.6246573941565096
 40
0.6511748875246617
 40
0.677682172466123
 40
0.7041798501970368
 40
0.730669413679477
 40
0.7571535919831431
 40
0.7836362081251889
 40
0.8101219758384084
 40
0.8366192115346712
 40
0.8631392325496725
 40
0.8896966235843755
 40
0.9163089977131751
 40
0.942995829834719
 40
0.9697758773419732
 40
0.9966628790240372
 40
1.0
 40
1.0
 40
1.0
 40
1.0
 10
381.1459309980029
 20
-80.62053946879054
 30
0.0
 10
381.1427715122686
 20
-81.01121953371218
 30
0.0
 10
381.1335945408595
 20
-82.1459800888445
 30
0.0
 10
381.0313796138321
 20
-84.07555169230011
 30
0.0
 10
380.8017230715183
 20
-86.4214774072029
 30
0.0
 10
380.4570679039859
 20
-88.81717189789417
 30
0.0
 10
380.000363429756
 20
-91.2526777132233
 30
0.0
 10
379.4324999595428
 20
-93.71954764345593
 30
0.0
 10
378.7554652658338
 20
-96.20877654915017
 30
0.0
 10
377.9714933967858
 20
-98.71137767013518
 30
0.0
 10
377.0832809199792
 20
-101.2182794736898
 30
0.0
 10
376.0939143255774
 20
-103.7204021218191
 30
0.0
 10
375.0068728655913
 20
-106.2086836319872
 30
0.0
 10
373.8260096356129
 20
-108.6741177362212
 30
0.0
 10
372.5555372430215
 20
-111.1077871373413
 30
0.0
 10
371.2000111813471
 20
-113.5008967876216
 30
0.0
 10
369.7643181669827
 20
-115.8447974890636
 30
0.0
 10
368.2536560601314
 20
-118.1310245394903
 30
0.0
 10
366.6735137170969
 20
-120.3513323076985
 30
0.0
 10
365.0296450337263
 20
-122.4977328418499
 30
0.0
 10
363.3280521068748
 20
-124.5625197818752
 30
0.0
 10
361.574966138745
 20
-126.5382955812881
 30
0.0
 10
359.776825581617
 20
-128.4180011145038
 30
0.0
 10
357.9402530652255
 20
-130.194945056063
 30
0.0
 10
356.0720307910057
 20
-131.8628330503288
 30
0.0
 10
354.179073942296
 20
-133.4157966328361
 30
0.0
 10
352.2684014978364
 20
-134.8484217379533
 30
0.0
 10
350.3471036293164
 20
-136.1557764458311
 30
0.0
 10
348.4223047302506
 20
-137.3334371599071
 30
0.0
 10
346.5011207741955
 20
-138.3775122716764
 30
0.0
 10
344.5906242626319
 20
-139.2846535157988
 30
0.0
 10
342.6978159146988
 20
-140.0520626551609
 30
0.0
 10
340.8295414196097
 20
-140.6775047965572
 30
0.0
 10
338.9923881466799
 20
-141.1593391474584
 30
0.0
 10
337.1926641427386
 20
-141.4963356615035
 30
0.0
 10
335.4360722869284
 20
-141.6881456646222
 30
0.0
 10
333.7287482747723
 20
-141.7331497554368
 30
0.0
 10
332.0732447707103
 20
-141.6360312312303
 30
0.0
 10
330.4837220192268
 20
-141.3788349882083
 30
0.0
 10
329.3853492218659
 20
-141.1316788810743
 30
0.0
 10
328.8403803310949
 20
-140.9285890902707
 30
0.0
 10
328.7802089528479
 20
-140.906165438522
 30
0.0
  0
SPLINE
  5
FE
330
1F
100
AcDbEntity
  8
0
  6
Continuous
 62
     7
370
    25
100
AcDbSpline
210
0.0
220
0.0
230
1.0
 70
     8
 71
     3
 72
    14
 73
    10
 74
     0
 42
0.00000001
 43
0.00000001
 40
0.0
 40
0.0
 40
0.0
 40
0.0
 40
0.1309170469299118
 40
0.3010469549240688
 40
0.4628678464484545
 40
0.6349026515916838
 40
0.8018486482912651
 40
0.9570145699916582
 40
1.0
 40
1.0
 40
1.0
 40
1.0
 10
404.6298830577286
 20
-62.40827878012789
 30
0.0
 10
404.7532702681897
 20
-62.47766734824578
 30
0.0
 10
405.0370021797854
 20
-62.63722805961452
 30
0.0
 10
405.3997001572914
 20
-63.02660084703401
 30
0.0
 10
405.7445063697427
 20
-63.56441313084436
 30
0.0
 10
406.0117825210028
 20
-64.23499400575844
 30
0.0
 10
406.1851923884902
 20
-65.01907242391613
 30
0.0
 10
406.2440019909376
 20
-65.67138469856579
 30
0.0
 10
406.2474695126365
 20
-66.0476675718704
 30
0.0
 10
406.2482217301207
 20
-66.12929548394008
 30
0.0
  0
SPLINE
  5
FF
330
1F
100
AcDbEntity
  8
0
  6
Continuous
 62
     7
370
    25
100
AcDbSpline
210
0.0
220
0.0
230
1.0
 70
     8
 71
     3
 72
    26
 73
    22
 74
     0
 42
0.00000001
 43
0.00000001
 40
0.0
 40
0.0
 40
0.0
 40
0.0
 40
0.0287082976890808
 40
0.0838071945737769
 40
0.1390922356823217
 40
0.1945599612411153
 40
0.2501897097761913
 40
0.3059369352384279
 40
0.3617477673223985
 40
0.4175649996237712
 40
0.4733120499007976
 40
0.5289289426645568
 40
0.5843589623278882
 40
0.6395538208354679
 40
0.6944890076761204
 40
0.7491962987691927
 40
0.8038198782861192
 40
0.8585960629034035
 40
0.914151244051806
 40
0.9715973506607217
 40
0.9999999999999999
 40
0.9999999999999999
 40
0.9999999999999999
 40
0.9999999999999999
 10
406.2482217301207
 20
-66.12929548394008
 30
0.0
 10
406.2453368382963
 20
-66.295295615752
 30
0.0
 10
406.23691506794
 20
-66.77989437171806
 30
0.0
 10
406.1415772601096
 20
-67.63797611344596
 30
0.0
 10
405.9254115644371
 20
-68.70434269531373
 30
0.0
 10
405.6015438124049
 20
-69.80200035282414
 30
0.0
 10
405.1762859999389
 20
-70.90835806629758
 30
0.0
 10
404.6561231013618
 20
-72.00249613624352
 30
0.0
 10
404.0504932950443
 20
-73.06321108494467
 30
0.0
 10
403.3708520585712
 20
-74.0700601146725
 30
0.0
 10
402.6306242846084
 20
-75.00377950578303
 30
0.0
 10
401.8449024081826
 20
-75.84680479287407
 30
0.0
 10
401.0301178915975
 20
-76.58379304346467
 30
0.0
 10
400.2038020520566
 20
-77.20205436785118
 30
0.0
 10
399.3842050785827
 20
-77.69207131363555
 30
0.0
 10
398.5894769441755
 20
-78.04836858100649
 30
0.0
 10
397.837585325701
 20
-78.26896952230116
 30
0.0
 10
397.1419811655384
 20
-78.35928970016094
 30
0.0
 10
396.5156611371
 20
-78.31793416085719
 30
0.0
 10
396.0458604649461
 20
-78.20595384383832
 30
0.0
 10
395.8088923848361
 20
-78.0619850846111
 30
0.0
 10
395.7304926315766
 20
-78.01435371081917
 30
0.0
  0
SPLINE
  5
100
330
1F
100
AcDbEntity
  8
0
  6
Continuous
 62
     7
370
    25
100
AcDbSpline
210
0.0
220
0.0
230
1.0
 70
     8
 71
     3
 72
    14
 73
    10
 74
     0
 42
0.00000001
 43
0.00000001
 40
0.0
 40
0.0
 40
0.0
 40
0.0
 40
0.1309170469299044
 40
0.3010469549240565
 40
0.46286784644844
 40
0.6349026515916625
 40
0.8018486482912492
 40
0.9570145699916349
 40
1.0
 40
1.0
 40
1.0
 40
1.0
 10
353.364641421704
 20
-151.2022816954127
 30
0.0
 10
353.488028632165
 20
-151.2716702635306
 30
0.0
 10
353.7717605437608
 20
-151.4312309748993
 30
0.0
 10
354.1344585212668
 20
-151.8206037623187
 30
0.0
 10
354.479264733718
 20
-152.3584160461291
 30
0.0
 10
354.7465408849781
 20
-153.0289969210432
 30
0.0
 10
354.9199507524656
 20
-153.8130753392008
 30
0.0
 10
354.9787603549129
 20
-154.4653876138505
 30
0.0
 10
354.9822278766118
 20
-154.8416704871551
 30
0.0
 10
354.9829800940961
 20
-154.9232983992249
 30
0.0
  0
SPLINE
  5
101
330
1F
100
AcDbEntity
  8
0
  6
Continuous
 62
     7
370
    25
100
AcDbSpline
210
0.0
220
0.0
230
1.0
 70
     8
 71
     3
 72
    26
 73
    22
 74
     0
 42
0.00000001
 43
0.00000001
 40
0.0
 40
0.0
 40
0.0
 40
0.0
 40
0.028708297689081
 40
0.0838071945737885
 40
0.1390922356823279
 40
0.1945599612411203
 40
0.250189709776195
 40
0.3059369352384299
 40
0.3617477673224005
 40
0.4175649996237744
 40
0.4733120499007969
 40
0.528928942664559
 40
0.5843589623278903
 40
0.6395538208354725
 40
0.6944890076761229
 40
0.7491962987691964
 40
0.8038198782861252
 40
0.8585960629034098
 40
0.9141512440518149
 40
0.9715973506607261
 40
1.0
 40
1.0
 40
1.0
 40
1.0
 10
354.9829800940961
 20
-154.9232983992249
 30
0.0
 10
354.9800952022717
 20
-155.0892985310367
 30
0.0
 10
354.9716734319154
 20
-155.5738972870029
 30
0.0
 10
354.876335624085
 20
-156.4319790287308
 30
0.0
 10
354.6601699284125
 20
-157.4983456105987
 30
0.0
 10
354.3363021763802
 20
-158.596003268109
 30
0.0
 10
353.9110443639142
 20
-159.7023609815825
 30
0.0
 10
353.3908814653371
 20
-160.7964990515284
 30
0.0
 10
352.7852516590197
 20
-161.8572140002295
 30
0.0
 10
352.1056104225466
 20
-162.8640630299573
 30
0.0
 10
351.3653826485838
 20
-163.7977824210678
 30
0.0
 10
350.579660772158
 20
-164.6408077081589
 30
0.0
 10
349.7648762555728
 20
-165.3777959587495
 30
0.0
 10
348.938560416032
 20
-165.996057283136
 30
0.0
 10
348.118963442558
 20
-166.4860742289204
 30
0.0
 10
347.3242353081509
 20
-166.8423714962913
 30
0.0
 10
346.5723436896762
 20
-167.062972437586
 30
0.0
 10
345.8767395295137
 20
-167.1532926154458
 30
0.0
 10
345.2504195010753
 20
-167.1119370761419
 30
0.0
 10
344.7806188289215
 20
-166.9999567591231
 30
0.0
 10
344.5436507488114
 20
-166.8559879998959
 30
0.0
 10
344.465250995552
 20
-166.8083566261039
 30
0.0
  0
SPLINE
  5
102
330
1F
100
AcDbEntity
  8
0
  6
Continuous
 62
     7
370
    25
100
AcDbSpline
210
0.0
220
0.0
230
1.0
 70
     8
 71
     3
 72
    52
 73
    48
 74
     0
 42
0.00000001
 43
0.00000001
 40
0.0
 40
0.0
 40
0.0
 40
0.0
 40
0.014022010219212
 40
0.0368631076126148
 40
0.0596229775375333
 40
0.0823161873376602
 40
0.1049588276207254
 40
0.1275659059722636
 40
0.1501500849591014
 40
0.172721327481748
 40
0.1952870479084936
 40
0.2178518314610375
 40
0.2404188331151865
 40
0.2629906326013114
 40
0.2855687143333592
 40
0.3081537660798168
 40
0.3307459104633351
 40
0.3533448782348271
 40
0.3759501345564637
 40
0.3985609688951678
 40
0.4211765575374828
 40
0.4437960059551173
 40
0.4664183766259497
 40
0.4890427065744504
 40
0.5116680178592637
 40
0.5342933183748289
 40
0.5569172905094106
 40
0.5795389388207943
 40
0.6021572688396809
 40
0.6247712932551571
 40
0.6473800430434681
 40
0.6699825860200627
 40
0.6925780561942924
 40
0.7151656983972645
 40
0.7377449340545492
 40
0.760315455657099
 40
0.7828773592977845
 40
0.805431326197993
 40
0.8279788646097758
 40
0.8505226212258471
 40
0.8730658212415585
 40
0.8956132861108329
 40
0.9181727110593084
 40
0.9407544287701182
 40
0.9633715546908007
 40
0.9860396205053914
 40
1.0
 40
1.0
 40
1.0
 40
1.0
 10
332.3253282778016
 20
-141.6240583572602
 30
0.0
 10
332.1292377283768
 20
-141.3508057321767
 30
0.0
 10
331.6137262637394
 20
-140.6324393377434
 30
0.0
 10
330.888573392168
 20
-139.3275250124464
 30
0.0
 10
330.1433587589372
 20
-137.7323341100239
 30
0.0
 10
329.5080636051154
 20
-136.021090350961
 30
0.0
 10
328.9794495827989
 20
-134.2064556694817
 30
0.0
 10
328.5606602179697
 20
-132.2925207596998
 30
0.0
 10
328.2528718251558
 20
-130.2861180148797
 30
0.0
 10
328.0574663529222
 20
-128.1938604902207
 30
0.0
 10
327.9753841140196
 20
-126.0229654607055
 30
0.0
 10
328.0072300274809
 20
-123.7810096195714
 30
0.0
 10
328.1531945440916
 20
-121.4759224987497
 30
0.0
 10
328.4130497259637
 20
-119.1159020070431
 30
0.0
 10
328.7861394995142
 20
-116.7093809692985
 30
0.0
 10
329.2713732198555
 20
-114.2650078799627
 30
0.0
 10
329.8672252025531
 20
-111.791601061117
 30
0.0
 10
330.5717393632938
 20
-109.2981046077734
 30
0.0
 10
331.3825372556133
 20
-106.7935467533406
 30
0.0
 10
332.2968286213358
 20
-104.2870003595616
 30
0.0
 10
333.3114237535208
 20
-101.7875452787339
 30
0.0
 10
334.4227472307336
 20
-99.30423227283761
 30
0.0
 10
335.6268527323238
 20
-96.84604821536547
 30
0.0
 10
336.9194387551773
 20
-94.42188234475616
 30
0.0
 10
338.2958650163944
 20
-92.04049357076956
 30
0.0
 10
339.7511628046863
 20
-89.71048928075668
 30
0.0
 10
341.2800582924124
 20
-87.44028138035443
 30
0.0
 10
342.8769917059268
 20
-85.23805454916642
 30
0.0
 10
344.5361452968945
 20
-83.11172587479113
 30
0.0
 10
346.2514565863374
 20
-81.06892586873057
 30
0.0
 10
348.0166394548462
 20
-79.11696866330344
 30
0.0
 10
349.8252062850161
 20
-77.26282246456644
 30
0.0
 10
351.6704913890239
 20
-75.51308022857647
 30
0.0
 10
353.54567607387
 20
-73.87393054121098
 30
0.0
 10
355.4438158166311
 20
-72.35112880449418
 30
0.0
 10
357.3578702752393
 20
-70.94996878756321
 30
0.0
 10
359.2807367584272
 20
-69.67525552478843
 30
0.0
 10
361.2052890675084
 20
-68.53127839413636
 30
0.0
 10
363.1244196041653
 20
-67.52179330805768
 30
0.0
 10
365.0310713513415
 20
-66.6500005491526
 30
0.0
 10
366.9182595189812
 20
-65.91859475047742
 30
0.0
 10
368.7792587028092
 20
-65.32950909147401
 30
0.0
 10
370.6073069188542
 20
-64.88483055528398
 30
0.0
 10
372.3971454457785
 20
-64.58347667059135
 30
0.0
 10
374.1395912383217
 20
-64.43388923351678
 30
0.0
 10
375.6224018333149
 20
-64.41042358353674
 30
0.0
 10
376.4967919588858
 20
-64.49680531281376
 30
0.0
 10
376.8300525675811
 20
-64.52972840610718
 30
0.0
  0
SPLINE
  5
103
330
1F
100
AcDbEntity
  8
0
  6
Continuous
 62
     7
370
    25
100
AcDbSpline
210
0.0
220
0.0
230
1.0
 70
     8
 71
     3
 72
    14
 73
    10
 74
     0
 42
0.00000001
 43
0.00000001
 40
0.0
 40
0.0
 40
0.0
 40
0.0
 40
0.1309170469299182
 40
0.30104695492408
 40
0.4628678464484547
 40
0.6349026515916808
 40
0.801848648291261
 40
0.9570145699916484
 40
1.0
 40
1.0
 40
1.0
 40
1.0
 10
353.3646414217086
 20
-32.80386397198161
 30
0.0
 10
353.4880286321697
 20
-32.87325254009949
 30
0.0
 10
353.7717605437654
 20
-33.03281325146823
 30
0.0
 10
354.1344585212715
 20
-33.42218603888772
 30
0.0
 10
354.4792647337227
 20
-33.95999832269813
 30
0.0
 10
354.7465408849828
 20
-34.63057919761214
 30
0.0
 10
354.9199507524702
 20
-35.4146576157698
 30
0.0
 10
354.9787603549175
 20
-36.06696989041955
 30
0.0
 10
354.9822278766164
 20
-36.44325276372408
 30
0.0
 10
354.9829800941008
 20
-36.5248806757938
 30
0.0
  0
SPLINE
  5
104
330
1F
100
AcDbEntity
  8
0
  6
Continuous
 62
     7
370
    25
100
AcDbSpline
210
0.0
220
0.0
230
1.0
 70
     8
 71
     3
 72
    26
 73
    22
 74
     0
 42
0.00000001
 43
0.00000001
 40
0.0
 40
0.0
 40
0.0
 40
0.0
 40
0.028708297689081
 40
0.0838071945737887
 40
0.1390922356823281
 40
0.1945599612411207
 40
0.2501897097761954
 40
0.3059369352384305
 40
0.3617477673224005
 40
0.4175649996237732
 40
0.4733120499007954
 40
0.5289289426645555
 40
0.5843589623278945
 40
0.6395538208354704
 40
0.6944890076761239
 40
0.7491962987692005
 40
0.8038198782861273
 40
0.8585960629034102
 40
0.9141512440518188
 40
0.9715973506607285
 40
1.0
 40
1.0
 40
1.0
 40
1.0
 10
354.9829800941008
 20
-36.52488067579382
 30
0.0
 10
354.9800952022762
 20
-36.69088080760573
 30
0.0
 10
354.97167343192
 20
-37.17547956357188
 30
0.0
 10
354.8763356240896
 20
-38.03356130529979
 30
0.0
 10
354.6601699284171
 20
-39.09992788716762
 30
0.0
 10
354.3363021763848
 20
-40.19758554467796
 30
0.0
 10
353.9110443639188
 20
-41.30394325815139
 30
0.0
 10
353.3908814653417
 20
-42.39808132809733
 30
0.0
 10
352.7852516590243
 20
-43.45879627679841
 30
0.0
 10
352.1056104225513
 20
-44.46564530652623
 30
0.0
 10
351.3653826485884
 20
-45.39936469763681
 30
0.0
 10
350.5796607721626
 20
-46.24238998472779
 30
0.0
 10
349.7648762555775
 20
-46.97937823531842
 30
0.0
 10
348.9385604160366
 20
-47.59763955970496
 30
0.0
 10
348.1189634425626
 20
-48.08765650548933
 30
0.0
 10
347.3242353081555
 20
-48.44395377286027
 30
0.0
 10
346.5723436896808
 20
-48.66455471415492
 30
0.0
 10
345.8767395295183
 20
-48.75487489201469
 30
0.0
 10
345.2504195010799
 20
-48.7135193527109
 30
0.0
 10
344.7806188289262
 20
-48.60153903569199
 30
0.0
 10
344.543650748816
 20
-48.4575702764648
 30
0.0
 10
344.4652509955566
 20
-48.40993890267288
 30
0.0
  0
SPLINE
  5
105
330
1F
100
AcDbEntity
  8
0
  6
Continuous
 62
     7
370
    25
100
AcDbSpline
210
0.0
220
0.0
230
1.0
 70
     8
 71
     3
 72
    14
 73
    10
 74
     0
 42
0.00000001
 43
0.00000001
 40
0.0
 40
0.0
 40
0.0
 40
0.0
 40
0.1309170469299151
 40
0.3010469549240791
 40
0.4628678464484577
 40
0.6349026515916824
 40
0.8018486482912587
 40
0.9570145699916388
 40
1.0
 40
1.0
 40
1.0
 40
1.0
 10
302.0993997856839
 20
-121.5978668872664
 30
0.0
 10
302.2227869961451
 20
-121.6672554553843
 30
0.0
 10
302.5065189077408
 20
-121.826816166753
 30
0.0
 10
302.8692168852468
 20
-122.2161889541725
 30
0.0
 10
303.2140230976981
 20
-122.7540012379829
 30
0.0
 10
303.4812992489581
 20
-123.424582112897
 30
0.0
 10
303.6547091164455
 20
-124.2086605310546
 30
0.0
 10
303.7135187188929
 20
-124.8609728057043
 30
0.0
 10
303.7169862405918
 20
-125.2372556790089
 30
0.0
 10
303.7177384580762
 20
-125.3188835910786
 30
0.0
  0
SPLINE
  5
106
330
1F
100
AcDbEntity
  8
0
  6
Continuous
 62
     7
370
    25
100
AcDbSpline
210
0.0
220
0.0
230
1.0
 70
     8
 71
     3
 72
    26
 73
    22
 74
     0
 42
0.00000001
 43
0.00000001
 40
0.0
 40
0.0
 40
0.0
 40
0.0
 40
0.0287082976890807
 40
0.0838071945737939
 40
0.1390922356823324
 40
0.1945599612411286
 40
0.2501897097762029
 40
0.3059369352384321
 40
0.3617477673224063
 40
0.4175649996237811
 40
0.4733120499008078
 40
0.5289289426645697
 40
0.5843589623279017
 40
0.6395538208354822
 40
0.6944890076761348
 40
0.7491962987692067
 40
0.8038198782861323
 40
0.8585960629034173
 40
0.9141512440518217
 40
0.9715973506607376
 40
1.0
 40
1.0
 40
1.0
 40
1.0
 10
303.7177384580762
 20
-125.3188835910786
 30
0.0
 10
303.7148535662517
 20
-125.4848837228905
 30
0.0
 10
303.7064317958954
 20
-125.9694824788567
 30
0.0
 10
303.6110939880649
 20
-126.8275642205847
 30
0.0
 10
303.3949282923925
 20
-127.8939308024525
 30
0.0
 10
303.0710605403601
 20
-128.9915884599629
 30
0.0
 10
302.6458027278941
 20
-130.0979461734363
 30
0.0
 10
302.125639829317
 20
-131.1920842433822
 30
0.0
 10
301.5200100229996
 20
-132.2527991920833
 30
0.0
 10
300.8403687865265
 20
-133.2596482218112
 30
0.0
 10
300.1001410125636
 20
-134.1933676129217
 30
0.0
 10
299.3144191361378
 20
-135.0363929000128
 30
0.0
 10
298.4996346195526
 20
-135.7733811506033
 30
0.0
 10
297.6733187800118
 20
-136.3916424749899
 30
0.0
 10
296.8537218065378
 20
-136.8816594207742
 30
0.0
 10
296.0589936721307
 20
-137.2379566881451
 30
0.0
 10
295.3071020536561
 20
-137.4585576294397
 30
0.0
 10
294.6114978934936
 20
-137.5488778072995
 30
0.0
 10
293.9851778650552
 20
-137.5075222679957
 30
0.0
 10
293.5153771929014
 20
-137.3955419509768
 30
0.0
 10
293.2784091127914
 20
-137.2515731917496
 30
0.0
 10
293.2000093595319
 20
-137.2039418179577
 30
0.0
  0
LWPOLYLINE
  5
107
330
1F
100
AcDbEntity
  8
0
  6
Continuous
 62
     7
370
    25
100
AcDbPolyline
 90
      143
 70
   128
 43
0.0
 10
413.9657361514
 20
-61.434948841
 10
413.9013710965
 20
-58.1131010414
 10
413.7084019292
 20
-54.8720702256
 10
413.387206396
 20
-51.7182008634
 10
412.938413252
 20
-48.6576668024
 10
412.3629010309
 20
-45.6964591815
 10
411.661796325
 20
-42.8403747039
 10
410.8364715796
 20
-40.0950042889
 10
409.8885424067
 20
-37.4657221282
 10
408.8198644221
 20
-34.9576751649
 10
407.6325296131
 20
-32.5757730188
 10
406.3288622435
 20
-30.3246783753
 10
404.9114143033
 20
-28.2087978577
 10
403.3829605135
 20
-26.2322734016
 10
401.746492894
 20
-24.3989741465
 10
400.0052149071
 20
-22.7124888615
 10
398.1625351863
 20
-21.1761189211
 10
396.2220608636
 20
-19.7928718413
 10
394.1875905086
 20
-18.5654553935
 10
392.0631066927
 20
-17.4962723028
 10
389.8527681925
 20
-16.5874155454
 10
387.5609018496
 20
-15.8406642511
 10
385.1919940999
 20
-15.2574802206
 10
382.7506821917
 20
-14.839005064
 10
380.2417451075
 20
-14.5860579661
 10
377.6700942096
 20
-14.4991340828
 10
375.0407636253
 20
-14.5784035715
 10
372.3589003928
 20
-14.8237112587
 10
369.6297543853
 20
-15.2345769428
 10
366.8586680342
 20
-15.8101963352
 10
364.0510658713
 20
-16.5494426337
 10
361.2124439095
 20
-17.4508687291
 10
358.3483588847
 20
-18.5127100374
 10
355.4644173778
 20
-19.7328879544
 10
352.5662648397
 20
-21.1090139245
 10
349.6595745402
 20
-22.6383941165
 10
346.7500364619
 20
-24.3180346969
 10
343.8433461624
 20
-26.1446476904
 10
340.9451936243
 20
-28.1146574162
 10
338.0612521174
 20
-30.2242074879
 10
335.1971670926
 20
-32.469168362
 10
332.3585451308
 20
-34.8451454222
 10
329.5509429679
 20
-37.3474875819
 10
326.7798566168
 20
-39.9712963887
 10
324.0507106093
 20
-42.7114356138
 10
321.3688473768
 20
-45.5625413059
 10
318.7395167925
 20
-48.5190322917
 10
316.1678658946
 20
-51.5751211014
 10
313.6589288104
 20
-54.7248252974
 10
311.2176169022
 20
-57.961979186
 10
308.8487091525
 20
-61.2802458864
 10
306.5568428096
 20
-64.6731297357
 10
304.3465043094
 20
-68.1339890045
 10
302.2220204935
 20
-71.6560488982
 10
300.1875501385
 20
-75.2324148191
 10
298.2470758158
 20
-78.856085863
 10
296.404396095
 20
-82.5199685238
 10
294.6631181081
 20
-86.216890579
 10
293.0266504886
 20
-89.9396151301
 10
291.4981966988
 20
-93.6808547689
 10
290.0807487586
 20
-97.4332858433
 10
288.777081389
 20
-101.1895627931
 10
287.58974658
 20
-104.9423325298
 10
286.5210685954
 20
-108.6842488304
 10
285.5731394225
 20
-112.4079867181
 10
284.7478146771
 20
-116.1062568011
 10
284.0467099712
 20
-119.7718195419
 10
283.4711977501
 20
-123.3974994295
 10
283.0224046061
 20
-126.9761990252
 10
282.7012090729
 20
-130.5009128564
 10
282.5082399056
 20
-133.9647411303
 10
282.4438748507
 20
-137.3609032405
 10
282.5082399056
 20
-140.68275104
 10
282.7012090729
 20
-143.9237818558
 10
283.0224046061
 20
-147.077651218
 10
283.4711977501
 20
-150.1381852791
 10
284.0467099712
 20
-153.0993928999
 10
284.7478146771
 20
-155.9554773775
 10
285.5731394225
 20
-158.7008477925
 10
286.5210685954
 20
-161.3301299533
 10
287.58974658
 20
-163.8381769165
 10
288.777081389
 20
-166.2200790626
 10
290.0807487586
 20
-168.4711737061
 10
291.4981966988
 20
-170.5870542237
 10
293.0266504886
 20
-172.5635786798
 10
294.6631181081
 20
-174.396877935
 10
296.404396095
 20
-176.0833632199
 10
298.2470758158
 20
-177.6197331603
 10
300.1875501385
 20
-179.0029802401
 10
302.2220204935
 20
-180.230396688
 10
304.3465043094
 20
-181.2995797787
 10
306.5568428096
 20
-182.2084365361
 10
308.8487091525
 20
-182.9551878304
 10
311.2176169022
 20
-183.5383718609
 10
313.6589288104
 20
-183.9568470174
 10
316.1678658946
 20
-184.2097941153
 10
318.7395167925
 20
-184.2967179987
 10
321.3688473768
 20
-184.2174485099
 10
324.0507106093
 20
-183.9721408228
 10
326.7798566168
 20
-183.5612751386
 10
329.5509429679
 20
-182.9856557463
 10
332.3585451308
 20
-182.2464094477
 10
335.1971670926
 20
-181.3449833524
 10
338.0612521174
 20
-180.2831420441
 10
340.9451936243
 20
-179.0629641271
 10
343.8433461624
 20
-177.6868381569
 10
346.7500364619
 20
-176.1574579649
 10
349.6595745402
 20
-174.4778173845
 10
352.5662648397
 20
-172.651204391
 10
355.4644173778
 20
-170.6811946652
 10
358.3483588847
 20
-168.5716445936
 10
361.2124439095
 20
-166.3266837195
 10
364.0510658713
 20
-163.9507066592
 10
366.8586680342
 20
-161.4483644996
 10
369.6297543853
 20
-158.8245556927
 10
372.3589003928
 20
-156.0844164676
 10
375.0407636253
 20
-153.2333107755
 10
377.6700942096
 20
-150.2768197897
 10
380.2417451075
 20
-147.2207309801
 10
382.7506821917
 20
-144.071026784
 10
385.1919940999
 20
-140.8338728954
 10
387.5609018496
 20
-137.515606195
 10
389.8527681925
 20
-134.1227223457
 10
392.0631066927
 20
-130.6618630769
 10
394.1875905086
 20
-127.1398031833
 10
396.2220608636
 20
-123.5634372623
 10
398.1625351863
 20
-119.9397662184
 10
400.0052149071
 20
-116.2758835576
 10
401.746492894
 20
-112.5789615024
 10
403.3829605135
 20
-108.8562369514
 10
404.9114143033
 20
-105.1149973125
 10
406.3288622435
 20
-101.3625662382
 10
407.6325296131
 20
-97.6062892884
 10
408.8198644221
 20
-93.8535195517
 10
409.8885424067
 20
-90.111603251
 10
410.8364715796
 20
-86.3878653633
 10
411.661796325
 20
-82.6895952804
 10
412.3629010309
 20
-79.0240325395
 10
412.938413252
 20
-75.3983526519
 10
413.387206396
 20
-71.8196530562
 10
413.7084019292
 20
-68.294939225
 10
413.9013710965
 20
-64.8311109511
 10
413.9657361514
 20
-61.434948841
  0
ARC
  5
108
330
1F
100
AcDbEntity
  8
0
  6
Continuous
 62
     7
370
    25
100
AcDbCircle
 10
317.7605763116
 20
-153.7672212968
 30
0.0
 40
31.69023527498972
100
AcDbArc
 50
227.2997211804
 51
252.5396540764
  0
ARC
  5
109
330
1F
100
AcDbEntity
  8
0
  6
Continuous
 62
     7
370
    25
100
AcDbCircle
 10
380.0590083119
 20
-45.8522847295
 30
0.0
 40
31.69855492663919
100
AcDbArc
 50
47.1109885446
 51
72.7716092129
  0
ARC
  5
10A
330
1F
100
AcDbEntity
  8
0
  6
Continuous
 62
     7
370
    25
100
AcDbCircle
 10
391.2778220391
 20
-52.4907933627
 30
0.0
 40
31.841385708655
100
AcDbArc
 50
47.7780646444
 51
59.9516042868
  0
ARC
  5
10B
330
1F
100
AcDbEntity
  8
0
  6
Continuous
 62
     7
370
    25
100
AcDbCircle
 10
329.1041187313
 20
-160.2060059527
 30
0.0
 40
31.78767100604062
100
AcDbArc
 50
240.0398635808
 51
252.9619916644
  0
LWPOLYLINE
  5
10C
330
1F
100
AcDbEntity
  8
0
  6
Continuous
 62
     7
370
    25
100
AcDbPolyline
 90
       47
 70
   128
 43
0.0
 10
355.2758733129
 20
-154.5150943433
 10
355.2100130057
 20
-155.6649709514
 10
355.0136589371
 20
-156.869468226
 10
354.6904688118
 20
-158.106148662
 10
354.2464630504
 20
-159.3519752426
 10
353.68991264
 20
-160.5837405759
 10
353.0311850619
 20
-161.7784992043
 10
352.2825511645
 20
-162.9139950352
 10
351.4579565807
 20
-163.9690759295
 10
350.5727619475
 20
-164.9240877267
 10
349.6434567661
 20
-165.7612403638
 10
348.6873522336
 20
-166.4649392711
 10
347.7222587685
 20
-167.0220758695
 10
346.766154236
 20
-167.4222717583
 10
345.8368490546
 20
-167.6580720453
 10
344.9516544214
 20
-167.7250842172
 10
344.1270598376
 20
-167.6220599642
 10
343.3784259401
 20
-167.3509184331
 10
342.719698362
 20
-166.9167104776
 10
342.1631479517
 20
-166.3275245703
 10
341.7191421903
 20
-165.59433613
 10
341.395952065
 20
-164.7308030701
 10
341.1995979964
 20
-163.7530113775
 10
341.1337376892
 20
-162.6791754615
 10
341.1995979964
 20
-161.5292988534
 10
341.395952065
 20
-160.3248015788
 10
341.7191421903
 20
-159.0881211429
 10
342.1631479517
 20
-157.8422945622
 10
342.719698362
 20
-156.6105292289
 10
343.3784259401
 20
-155.4157706005
 10
344.1270598376
 20
-154.2802747697
 10
344.9516544214
 20
-153.2251938753
 10
345.8368490546
 20
-152.2701820782
 10
346.766154236
 20
-151.4330294411
 10
347.7222587685
 20
-150.7293305338
 10
348.6873522336
 20
-150.1721939353
 10
349.6434567661
 20
-149.7719980465
 10
350.5727619475
 20
-149.5361977596
 10
351.4579565807
 20
-149.4691855876
 10
352.2825511645
 20
-149.5722098407
 10
353.0311850619
 20
-149.8433513718
 10
353.68991264
 20
-150.2775593273
 10
354.2464630504
 20
-150.8667452345
 10
354.6904688118
 20
-151.5999336748
 10
355.0136589371
 20
-152.4634667348
 10
355.2100130057
 20
-153.4412584273
 10
355.2758733129
 20
-154.5150943433
  0
LWPOLYLINE
  5
10D
330
1F
100
AcDbEntity
  8
0
  6
Continuous
 62
     7
370
    25
100
AcDbPolyline
 90
       47
 70
   128
 43
0.0
 10
355.2758733129
 20
-36.1166766199
 10
355.2100130057
 20
-37.266553228
 10
355.0136589371
 20
-38.4710505026
 10
354.6904688118
 20
-39.7077309386
 10
354.2464630504
 20
-40.9535575192
 10
353.68991264
 20
-42.1853228525
 10
353.0311850619
 20
-43.3800814809
 10
352.2825511645
 20
-44.5155773117
 10
351.4579565807
 20
-45.5706582061
 10
350.5727619475
 20
-46.5256700032
 10
349.6434567661
 20
-47.3628226403
 10
348.6873522336
 20
-48.0665215477
 10
347.7222587685
 20
-48.6236581461
 10
346.766154236
 20
-49.0238540349
 10
345.8368490546
 20
-49.2596543218
 10
344.9516544214
 20
-49.3266664938
 10
344.1270598376
 20
-49.2236422408
 10
343.3784259401
 20
-48.9525007096
 10
342.719698362
 20
-48.5182927541
 10
342.1631479517
 20
-47.9291068469
 10
341.7191421903
 20
-47.1959184066
 10
341.395952065
 20
-46.3323853467
 10
341.1995979964
 20
-45.3545936541
 10
341.1337376892
 20
-44.2807577381
 10
341.1995979964
 20
-43.13088113
 10
341.395952065
 20
-41.9263838554
 10
341.7191421903
 20
-40.6897034194
 10
342.1631479517
 20
-39.4438768388
 10
342.719698362
 20
-38.2121115055
 10
343.3784259401
 20
-37.0173528771
 10
344.1270598376
 20
-35.8818570463
 10
344.9516544214
 20
-34.8267761519
 10
345.8368490546
 20
-33.8717643547
 10
346.766154236
 20
-33.0346117177
 10
347.7222587685
 20
-32.3309128103
 10
348.6873522336
 20
-31.7737762119
 10
349.6434567661
 20
-31.3735803231
 10
350.5727619475
 20
-31.1377800361
 10
351.4579565807
 20
-31.0707678642
 10
352.2825511645
 20
-31.1737921172
 10
353.0311850619
 20
-31.4449336484
 10
353.68991264
 20
-31.8791416039
 10
354.2464630504
 20
-32.4683275111
 10
354.6904688118
 20
-33.2015159514
 10
355.0136589371
 20
-34.0650490113
 10
355.2100130057
 20
-35.0428407039
 10
355.2758733129
 20
-36.1166766199
  0
LWPOLYLINE
  5
10E
330
1F
100
AcDbEntity
  8
0
  6
Continuous
 62
     7
370
    25
100
AcDbPolyline
 90
      101
 70
   128
 43
0.0
 10
381.4388242168
 20
-80.2123354129
 10
381.3732444725
 20
-82.6599318178
 10
381.1767640527
 20
-85.1735854391
 10
380.850158376
 20
-87.7433760343
 10
380.3947164058
 20
-90.3591618138
 10
379.8122355634
 20
-93.0106194664
 10
379.1050146345
 20
-95.6872848999
 10
378.2758446972
 20
-98.3785945388
 10
377.3279981064
 20
-101.0739270134
 10
376.2652155794
 20
-103.7626450779
 10
375.0916914335
 20
-106.4341375904
 10
373.8120570322
 20
-109.0778613904
 10
372.431362508
 20
-111.683382908
 10
370.9550568313
 20
-114.24041934
 10
369.3889663062
 20
-116.7388792318
 10
367.7392715766
 20
-119.1689023037
 10
366.0124832338
 20
-121.5208983648
 10
364.2154161225
 20
-123.7855851612
 10
362.3551624457
 20
-125.9540250087
 10
360.4390637747
 20
-128.0176600658
 10
358.4746820756
 20
-129.9683461079
 10
356.4697698655
 20
-131.7983846683
 10
354.432239617
 20
-133.5005534209
 10
352.370132531
 20
-135.0681346832
 10
350.2915868023
 20
-136.4949419281
 10
348.204805501
 20
-137.7753441993
 10
346.1180241998
 20
-138.9042883341
 10
344.0394784711
 20
-139.8773189056
 10
341.9773713851
 20
-140.6905958068
 10
339.9398411366
 20
-141.3409094052
 10
337.9349289265
 20
-141.8256932102
 10
335.9705472274
 20
-142.1430340016
 10
334.0544485564
 20
-142.2916793802
 10
332.1941948796
 20
-142.2710427107
 10
330.3971277683
 20
-142.0812054366
 10
328.6703394255
 20
-141.7229167588
 10
327.0206446959
 20
-141.1975906792
 10
325.4545541708
 20
-140.5073004196
 10
323.9782484941
 20
-139.6547702405
 10
322.5975539699
 20
-138.6433646889
 10
321.3179195686
 20
-137.4770753205
 10
320.1443954227
 20
-136.1605049466
 10
319.0816128957
 20
-134.6988494689
 10
318.1337663049
 20
-133.097877374
 10
317.3045963676
 20
-131.3639069672
 10
316.5973754387
 20
-129.5037814375
 10
316.0148945963
 20
-127.5248418507
 10
315.5594526261
 20
-125.4348981771
 10
315.2328469494
 20
-123.2421984697
 10
315.0363665296
 20
-120.9553963123
 10
314.9707867853
 20
-118.5835166685
 10
315.0363665296
 20
-116.1359202636
 10
315.2328469494
 20
-113.6222666423
 10
315.5594526261
 20
-111.0524760472
 10
316.0148945963
 20
-108.4366902676
 10
316.5973754387
 20
-105.785232615
 10
317.3045963676
 20
-103.1085671815
 10
318.1337663049
 20
-100.4172575426
 10
319.0816128957
 20
-97.721925068
 10
320.1443954227
 20
-95.0332070035
 10
321.3179195686
 20
-92.361714491
 10
322.5975539699
 20
-89.717990691
 10
323.9782484941
 20
-87.1124691734
 10
325.4545541708
 20
-84.5554327415
 10
327.0206446959
 20
-82.0569728496
 10
328.6703394255
 20
-79.6269497777
 10
330.3971277683
 20
-77.2749537166
 10
332.1941948796
 20
-75.0102669202
 10
334.0544485564
 20
-72.8418270728
 10
335.9705472274
 20
-70.7781920156
 10
337.9349289265
 20
-68.8275059735
 10
339.9398411366
 20
-66.9974674131
 10
341.9773713851
 20
-65.2952986606
 10
344.0394784711
 20
-63.7277173983
 10
346.1180241998
 20
-62.3009101533
 10
348.204805501
 20
-61.0205078821
 10
350.2915868023
 20
-59.8915637473
 10
352.370132531
 20
-58.9185331758
 10
354.432239617
 20
-58.1052562747
 10
356.4697698655
 20
-57.4549426762
 10
358.4746820756
 20
-56.9701588712
 10
360.4390637747
 20
-56.6528180799
 10
362.3551624457
 20
-56.5041727012
 10
364.2154161225
 20
-56.5248093707
 10
366.0124832338
 20
-56.7146466448
 10
367.7392715766
 20
-57.0729353226
 10
369.3889663062
 20
-57.5982614023
 10
370.9550568313
 20
-58.2885516618
 10
372.431362508
 20
-59.141081841
 10
373.8120570322
 20
-60.1524873926
 10
375.0916914335
 20
-61.318776761
 10
376.2652155794
 20
-62.6353471349
 10
377.3279981064
 20
-64.0970026125
 10
378.2758446972
 20
-65.6979747074
 10
379.1050146345
 20
-67.4319451142
 10
379.8122355634
 20
-69.2920706439
 10
380.3947164058
 20
-71.2710102307
 10
380.850158376
 20
-73.3609539043
 10
381.1767640527
 20
-75.5536536118
 10
381.3732444725
 20
-77.8404557691
 10
381.4388242168
 20
-80.2123354129
  0
LWPOLYLINE
  5
10F
330
1F
100
AcDbEntity
  8
0
  6
Continuous
 62
     7
370
    25
100
AcDbPolyline
 90
       47
 70
   128
 43
0.0
 10
406.5411149489
 20
-65.721091428
 10
406.4752546418
 20
-66.8709680361
 10
406.2789005731
 20
-68.0754653108
 10
405.9557104478
 20
-69.3121457467
 10
405.5117046864
 20
-70.5579723273
 10
404.9551542761
 20
-71.7897376606
 10
404.296426698
 20
-72.984496289
 10
403.5477928005
 20
-74.1199921199
 10
402.7231982167
 20
-75.1750730142
 10
401.8380035835
 20
-76.1300848114
 10
400.9086984021
 20
-76.9672374485
 10
399.9525938696
 20
-77.6709363558
 10
398.9875004045
 20
-78.2280729542
 10
398.031395872
 20
-78.628268843
 10
397.1020906906
 20
-78.86406913
 10
396.2168960574
 20
-78.9310813019
 10
395.3923014736
 20
-78.8280570489
 10
394.6436675762
 20
-78.5569155178
 10
393.9849399981
 20
-78.1227075623
 10
393.4283895877
 20
-77.533521655
 10
392.9843838263
 20
-76.8003332148
 10
392.661193701
 20
-75.9368001548
 10
392.4648396324
 20
-74.9590084623
 10
392.3989793252
 20
-73.8851725463
 10
392.4648396324
 20
-72.7352959382
 10
392.661193701
 20
-71.5307986635
 10
392.9843838263
 20
-70.2941182276
 10
393.4283895877
 20
-69.0482916469
 10
393.9849399981
 20
-67.8165263136
 10
394.6436675762
 20
-66.6217676852
 10
395.3923014736
 20
-65.4862718544
 10
396.2168960574
 20
-64.43119096
 10
397.1020906906
 20
-63.4761791629
 10
398.031395872
 20
-62.6390265258
 10
398.9875004045
 20
-61.9353276185
 10
399.9525938696
 20
-61.3781910201
 10
400.9086984021
 20
-60.9779951313
 10
401.8380035835
 20
-60.7421948443
 10
402.7231982167
 20
-60.6751826723
 10
403.5477928005
 20
-60.7782069254
 10
404.296426698
 20
-61.0493484565
 10
404.9551542761
 20
-61.483556412
 10
405.5117046864
 20
-62.0727423192
 10
405.9557104478
 20
-62.8059307595
 10
406.2789005731
 20
-63.6694638195
 10
406.4752546418
 20
-64.647255512
 10
406.5411149489
 20
-65.721091428
  0
LWPOLYLINE
  5
110
330
1F
100
AcDbEntity
  8
0
  6
Continuous
 62
     7
370
    25
100
AcDbPolyline
 90
       47
 70
   128
 43
0.0
 10
304.0106316769
 20
-124.9106795352
 10
303.9447713697
 20
-126.0605561433
 10
303.7484173011
 20
-127.2650534179
 10
303.4252271758
 20
-128.5017338539
 10
302.9812214143
 20
-129.7475604345
 10
302.424671004
 20
-130.9793257678
 10
301.7659434259
 20
-132.1740843962
 10
301.0173095285
 20
-133.309580227
 10
300.1927149447
 20
-134.3646611214
 10
299.3075203115
 20
-135.3196729185
 10
298.3782151301
 20
-136.1568255556
 10
297.4221105976
 20
-136.860524463
 10
296.4570171325
 20
-137.4176610614
 10
295.5009126
 20
-137.8178569502
 10
294.5716074186
 20
-138.0536572371
 10
293.6864127854
 20
-138.1206694091
 10
292.8618182016
 20
-138.017645156
 10
292.1131843041
 20
-137.7465036249
 10
291.454456726
 20
-137.3122956694
 10
290.8979063157
 20
-136.7231097622
 10
290.4539005543
 20
-135.9899213219
 10
290.130710429
 20
-135.126388262
 10
289.9343563603
 20
-134.1485965694
 10
289.8684960532
 20
-133.0747606534
 10
289.9343563603
 20
-131.9248840453
 10
290.130710429
 20
-130.7203867707
 10
290.4539005543
 20
-129.4837063347
 10
290.8979063157
 20
-128.2378797541
 10
291.454456726
 20
-127.0061144208
 10
292.1131843041
 20
-125.8113557924
 10
292.8618182016
 20
-124.6758599615
 10
293.6864127854
 20
-123.6207790672
 10
294.5716074186
 20
-122.66576727
 10
295.5009126
 20
-121.828614633
 10
296.4570171325
 20
-121.1249157256
 10
297.4221105976
 20
-120.5677791272
 10
298.3782151301
 20
-120.1675832384
 10
299.3075203115
 20
-119.9317829514
 10
300.1927149447
 20
-119.8647707795
 10
301.0173095285
 20
-119.9677950325
 10
301.7659434259
 20
-120.2389365636
 10
302.424671004
 20
-120.6731445192
 10
302.9812214143
 20
-121.2623304264
 10
303.4252271758
 20
-121.9955188667
 10
303.7484173011
 20
-122.8590519266
 10
303.9447713697
 20
-123.8368436192
 10
304.0106316769
 20
-124.9106795352
  0
ARC
  5
111
330
1F
100
AcDbEntity
  8
0
  6
Continuous
 62
     7
370
    25
100
AcDbCircle
 10
364.1623949442
 20
-73.3882777404
 30
0.0
 40
15.49513850717186
100
AcDbArc
 50
48.3590345812
 51
72.0153040613
  0
ARC
  5
112
330
1F
100
AcDbEntity
  8
0
  6
Continuous
 62
     7
370
    25
100
AcDbCircle
 10
333.6455010637
 20
-126.2526392572
 30
0.0
 40
15.46300016343681
100
AcDbArc
 50
228.8469097394
 51
252.1384091347
  0
LINE
  5
113
330
1F
100
AcDbEntity
  8
0
  6
Continuous
 62
     7
370
    25
100
AcDbLine
 10
404.6767882151
 20
-62.4168962816
 30
0.0
 11
404.6260395906
 21
-62.388253127
 31
0.0
  0
LINE
  5
114
330
1F
100
AcDbEntity
  8
0
  6
Continuous
 62
     7
370
    25
100
AcDbLine
 10
395.6775196214
 20
-78.0057758045
 30
0.0
 11
395.7335072892
 21
-78.0373024262
 31
0.0
  0
LINE
  5
115
330
1F
100
AcDbEntity
  8
0
  6
Continuous
 62
     7
370
    25
100
AcDbLine
 10
353.4115465791
 20
-151.2108991969
 30
0.0
 11
353.3607979546
 21
-151.1822560423
 31
0.0
  0
LINE
  5
116
330
1F
100
AcDbEntity
  8
0
  6
Continuous
 62
     7
370
    25
100
AcDbLine
 10
344.4122779854
 20
-166.7997787198
 30
0.0
 11
344.4682656532
 21
-166.8313053415
 31
0.0
  0
LINE
  5
117
330
1F
100
AcDbEntity
  8
0
  6
Continuous
 62
     7
370
    25
100
AcDbLine
 10
353.4115465791
 20
-32.8124814735
 30
0.0
 11
353.3607979546
 21
-32.7838383188
 31
0.0
  0
LINE
  5
118
330
1F
100
AcDbEntity
  8
0
  6
Continuous
 62
     7
370
    25
100
AcDbLine
 10
344.4122779854
 20
-48.4013609963
 30
0.0
 11
344.4682656532
 21
-48.4328876181
 31
0.0
  0
LINE
  5
119
330
1F
100
AcDbEntity
  8
0
  6
Continuous
 62
     7
370
    25
100
AcDbLine
 10
302.1463049431
 20
-121.6064843888
 30
0.0
 11
302.0955563186
 21
-121.5778412341
 31
0.0
  0
LINE
  5
11A
330
1F
100
AcDbEntity
  8
0
  6
Continuous
 62
     7
370
    25
100
AcDbLine
 10
293.1470363493
 20
-137.1953639116
 30
0.0
 11
293.2030240172
 21
-137.2268905334
 31
0.0
  0
LWPOLYLINE
  5
11B
330
1F
100
AcDbEntity
  8
0
  6
Continuous
 62
     1
370
    25
100
AcDbPolyline
 90
       52
 70
   128
 43
0.0
 10
415.3799497138
 20
-61.434948841
 10
415.3148925615
 20
-64.8676288232
 10
415.119848457
 20
-68.3687025625
 10
414.7951992083
 20
-71.9313165424
 10
414.3415803316
 20
-75.5484967789
 10
413.7598798071
 20
-79.2131624717
 10
413.0512363409
 20
-82.9181398657
 10
412.2170371358
 20
-86.6561762937
 10
411.2589151761
 20
-90.4199543737
 10
410.1787460303
 20
-94.2021063335
 10
408.9786441805
 20
-97.995228433
 10
407.6609588821
 20
-101.7918954575
 10
406.2282695663
 20
-105.5846752531
 10
404.6833807894
 20
-109.3661432751
 10
403.0293167439
 20
-113.1288971225
 10
401.2693153378
 20
-116.8655710277
 10
399.4068218566
 20
-120.5688502762
 10
397.4454822186
 20
-124.2314855249
 10
395.3891358383
 20
-127.8463069934
 10
393.2418081103
 20
-131.4062384988
 10
391.0077025295
 20
-134.9043113081
 10
388.6911924625
 20
-138.3336777795
 10
386.2968125865
 20
-141.687624767
 10
383.8292500125
 20
-144.9595867619
 10
381.2933351102
 20
-148.143158745
 10
378.6940320521
 20
-151.2321087246
 10
376.036429096
 20
-154.2203899361
 10
373.3257286245
 20
-157.1021526786
 10
370.567236961
 20
-159.8717557664
 10
367.7663539825
 20
-162.5237775712
 10
364.9285625489
 20
-165.0530266358
 10
362.0594177703
 20
-167.4545518364
 10
359.1645361323
 20
-169.7236520748
 10
356.2495845017
 20
-171.8558854805
 10
353.3202690331
 20
-173.8470781066
 10
350.3823239992
 20
-175.6933321
 10
347.4415005653
 20
-177.3910333318
 10
344.5035555313
 20
-178.9368584722
 10
341.5742400628
 20
-180.3277814957
 10
338.6592884321
 20
-181.5610796054
 10
335.7644067941
 20
-182.6343385622
 10
332.8952620156
 20
-183.5454574112
 10
330.057470582
 20
-184.2926525947
 10
327.2565876035
 20
-184.8744614429
 10
324.49809594
 20
-185.2897450376
 10
321.7873954684
 20
-185.5376904418
 10
319.1297925123
 20
-185.6178122907
 10
316.5304894542
 20
-185.5299537419
 10
313.9945745519
 20
-185.2742867828
 10
311.527011978
 20
-184.8513118933
 10
309.132632102
 20
-184.2618570668
 10
308.2520585764
 20
-183.9973238812
  0
LWPOLYLINE
  5
11C
330
1F
100
AcDbEntity
  8
0
  6
Continuous
 62
     1
370
    25
100
AcDbPolyline
 90
       16
 70
   128
 43
0.0
 10
401.6324223862
 20
-22.6275955042
 10
403.0293167439
 20
-24.0007378594
 10
404.6833807894
 20
-25.8537500098
 10
406.2282695663
 20
-27.8515274171
 10
407.6609588821
 20
-29.990159338
 10
408.9786441805
 20
-32.2654593003
 10
410.1787460303
 20
-34.6729732974
 10
411.2589151761
 20
-37.2079885076
 10
412.2170371358
 20
-39.8655425195
 10
413.0512363409
 20
-42.6404330465
 10
413.7598798071
 20
-45.5272281099
 10
414.3415803316
 20
-48.5202766729
 10
414.7951992083
 20
-51.6137197024
 10
415.119848457
 20
-54.8015016383
 10
415.3148925615
 20
-58.0773822479
 10
415.3799497138
 20
-61.434948841
  0
LWPOLYLINE
  5
11D
330
1F
100
AcDbEntity
  8
0
  6
Continuous
 62
     1
370
    25
100
AcDbPolyline
 90
       16
 70
   128
 43
0.0
 10
426.6936582128
 20
-67.9662137355
 10
426.6286010604
 20
-64.6086471425
 10
426.433556956
 20
-61.3327665329
 10
426.1089077073
 20
-58.144984597
 10
425.6552888306
 20
-55.0515415675
 10
425.073588306
 20
-52.0584930045
 10
424.3649448398
 20
-49.1716979411
 10
423.5307456348
 20
-46.3968074141
 10
422.5726236751
 20
-43.7392534022
 10
421.4924545293
 20
-41.204238192
 10
420.2923526794
 20
-38.7967241949
 10
418.9746673811
 20
-36.5214242326
 10
417.5419780652
 20
-34.3827923116
 10
415.9970892884
 20
-32.3850149044
 10
414.3430252429
 20
-30.532002754
 10
412.6753654667
 20
-28.9107386743
  0
LWPOLYLINE
  5
11E
330
1F
100
AcDbEntity
  8
0
  6
Continuous
 62
     1
370
    25
100
AcDbPolyline
 90
       52
 70
   128
 43
0.0
 10
319.790139612
 20
-190.5985349846
 10
320.446340601
 20
-190.7931219614
 10
322.840720477
 20
-191.3825767879
 10
325.3082830509
 20
-191.8055516774
 10
327.8441979532
 20
-192.0612186365
 10
330.4435010113
 20
-192.1490771853
 10
333.1011039674
 20
-192.0689553364
 10
335.811804439
 20
-191.8210099322
 10
338.5702961025
 20
-191.4057263375
 10
341.371179081
 20
-190.8239174893
 10
344.2089705145
 20
-190.0767223058
 10
347.0781152931
 20
-189.1656034567
 10
349.9729969311
 20
-188.0923445
 10
352.8879485617
 20
-186.8590463903
 10
355.8172640303
 20
-185.4681233668
 10
358.7552090643
 20
-183.9222982264
 10
361.6960324982
 20
-182.2245969946
 10
364.6339775321
 20
-180.3783430012
 10
367.5632930007
 20
-178.3871503751
 10
370.4782446313
 20
-176.2549169694
 10
373.3731262693
 20
-173.985816731
 10
376.2422710479
 20
-171.5842915304
 10
379.0800624814
 20
-169.0550424657
 10
381.8809454599
 20
-166.4030206609
 10
384.6394371235
 20
-163.6334175732
 10
387.350137595
 20
-160.7516548307
 10
390.0077405511
 20
-157.7633736192
 10
392.6070436092
 20
-154.6744236396
 10
395.1429585115
 20
-151.4908516565
 10
397.6105210855
 20
-148.2188896616
 10
400.0049009615
 20
-144.864942674
 10
402.3214110285
 20
-141.4355762027
 10
404.5555166093
 20
-137.9375033934
 10
406.7028443373
 20
-134.377571888
 10
408.7591907176
 20
-130.7627504195
 10
410.7205303556
 20
-127.1001151708
 10
412.5830238368
 20
-123.3968359223
 10
414.3430252429
 20
-119.660162017
 10
415.9970892884
 20
-115.8974081697
 10
417.5419780652
 20
-112.1159401476
 10
418.9746673811
 20
-108.3231603521
 10
420.2923526794
 20
-104.5264933275
 10
421.4924545293
 20
-100.7333712281
 10
422.5726236751
 20
-96.9512192683
 10
423.5307456348
 20
-93.1874411883
 10
424.3649448398
 20
-89.4494047603
 10
425.073588306
 20
-85.7444273663
 10
425.6552888306
 20
-82.0797616735
 10
426.1089077073
 20
-78.462581437
 10
426.433556956
 20
-74.8999674571
 10
426.6286010604
 20
-71.3988937178
 10
426.6936582128
 20
-67.9662137355
  0
LWPOLYLINE
  5
11F
330
1F
100
AcDbEntity
  8
0
  6
Continuous
 62
     1
370
    25
100
AcDbPolyline
 90
       48
 70
   128
 43
0.0
 10
368.9467196236
 20
-58.6502468435
 10
367.7793722969
 20
-58.3179898473
 10
366.0609286369
 20
-57.989781028
 10
364.2734319406
 20
-57.8299518876
 10
362.4240798265
 20
-57.8391460015
 10
360.5203189826
 20
-58.0173263485
 10
358.5698151821
 20
-58.363775459
 10
356.5804224153
 20
-58.8770983048
 10
354.5601512648
 20
-59.555227916
 10
352.5171366494
 20
-60.395433704
 10
350.4596050679
 20
-61.3943324566
 10
348.3958414738
 20
-62.5479019611
 10
346.3341559147
 20
-63.8514972003
 10
344.2828500707
 20
-65.2998690561
 10
342.2501838265
 20
-66.8871854464
 10
340.2443420115
 20
-68.6070548083
 10
338.2734014428
 20
-70.4525518348
 10
336.3452984025
 20
-72.4162453608
 10
334.4677966809
 20
-74.4902282856
 10
332.6484563149
 20
-76.6661494119
 10
330.8946031461
 20
-78.9352470732
 10
329.213299322
 20
-81.2883844143
 10
327.6113148598
 20
-83.7160861815
 10
326.0951003855
 20
-86.2085768767
 10
324.6707611597
 20
-88.7558201195
 10
323.3440324936
 20
-91.3475590604
 10
322.1202566555
 20
-93.9733576816
 10
321.0043613586
 20
-96.6226428186
 10
320.0008399195
 20
-99.2847467352
 10
319.1137331648
 20
-101.9489500787
 10
318.3466131604
 20
-104.6045250423
 10
317.7025688276
 20
-107.2407785631
 10
317.1841935058
 20
-109.8470953785
 10
316.7935745095
 20
-112.4129807707
 10
316.5322847234
 20
-114.9281028247
 10
316.4013762692
 20
-117.3823340317
 10
316.4013762692
 20
-119.7657920688
 10
316.5322847234
 20
-122.0688795919
 10
316.7935745095
 20
-124.2823228802
 10
317.1841935058
 20
-126.3972091789
 10
317.7025688276
 20
-128.4050225873
 10
318.3466131604
 20
-130.2976783495
 10
319.1137331648
 20
-132.0675554086
 10
320.0008399195
 20
-133.7075270945
 10
321.0043613586
 20
-135.2109898199
 10
322.1202566555
 20
-136.5718896712
 10
323.3440324936
 20
-137.7847467849
 10
323.4697148293
 20
-137.8955662331
  0
LWPOLYLINE
  5
120
330
1F
100
AcDbEntity
  8
0
  6
Continuous
 62
     1
370
    25
100
AcDbPolyline
 90
       24
 70
   128
 43
0.0
 10
404.6260395906
 20
-62.388253127
 10
404.3446621096
 20
-62.2515814349
 10
403.6177710121
 20
-62.0428494885
 10
402.8208388726
 20
-62.0004043723
 10
401.9700889311
 20
-62.1251101465
 10
401.0828400031
 20
-62.4144281613
 10
400.1771539183
 20
-62.8624687361
 10
399.2714678334
 20
-63.4601110569
 10
398.3842189054
 20
-64.1951888495
 10
397.533468964
 20
-65.0527380498
 10
396.7365368244
 20
-66.015301429
 10
396.0096457269
 20
-67.0632839727
 10
395.3675930781
 20
-68.1753517783
 10
394.8234492184
 20
-69.3288663522
 10
394.3882913476
 20
-70.5003454642
 10
394.070978025
 20
-71.6659411778
 10
393.8779688348
 20
-72.8019253256
 10
393.8131928876
 20
-73.8851725463
 10
393.8779688348
 20
-74.8936310502
 10
394.070978025
 20
-75.8067715304
 10
394.3882913476
 20
-76.6060050799
 10
394.8234492184
 20
-77.2750616086
 10
395.3675930781
 20
-77.8003210549
 10
395.6775196214
 20
-78.0057758045
  0
LWPOLYLINE
  5
121
330
1F
100
AcDbEntity
  8
0
  6
Continuous
 62
     1
370
    25
100
AcDbPolyline
 90
       24
 70
   128
 43
0.0
 10
353.3607979546
 20
-151.1822560423
 10
353.0794204736
 20
-151.0455843502
 10
352.3525293761
 20
-150.8368524038
 10
351.5555972365
 20
-150.7944072876
 10
350.704847295
 20
-150.9191130618
 10
349.8175983671
 20
-151.2084310766
 10
348.9119122822
 20
-151.6564716514
 10
348.0062261974
 20
-152.2541139722
 10
347.1189772694
 20
-152.9891917647
 10
346.2682273279
 20
-153.846740965
 10
345.4712951883
 20
-154.8093043443
 10
344.7444040909
 20
-155.857286888
 10
344.1023514421
 20
-156.9693546936
 10
343.5582075824
 20
-158.1228692675
 10
343.1230497115
 20
-159.2943483795
 10
342.8057363889
 20
-160.4599440931
 10
342.6127271988
 20
-161.5959282409
 10
342.5479512516
 20
-162.6791754615
 10
342.6127271988
 20
-163.6876339655
 10
342.8057363889
 20
-164.6007744457
 10
343.1230497115
 20
-165.4000079952
 10
343.5582075824
 20
-166.0690645239
 10
344.1023514421
 20
-166.5943239702
 10
344.4122779854
 20
-166.7997787198
  0
LWPOLYLINE
  5
122
330
1F
100
AcDbEntity
  8
0
  6
Continuous
 62
     1
370
    25
100
AcDbPolyline
 90
       43
 70
   128
 43
0.0
 10
332.2736191674
 20
-141.6819202961
 10
331.3145484185
 20
-140.2387919891
 10
330.4274416638
 20
-138.5988203032
 10
329.6603216593
 20
-136.8289432441
 10
329.0162773266
 20
-134.9362874819
 10
328.4979020048
 20
-132.9284740735
 10
328.1072830085
 20
-130.8135877748
 10
327.8459932223
 20
-128.6001444865
 10
327.7150847682
 20
-126.2970569634
 10
327.7150847682
 20
-123.9135989262
 10
327.8459932223
 20
-121.4593677192
 10
328.1072830085
 20
-118.9442456653
 10
328.4979020048
 20
-116.3783602731
 10
329.0162773266
 20
-113.7720434577
 10
329.6603216593
 20
-111.1357899369
 10
330.4274416638
 20
-108.4802149732
 10
331.3145484185
 20
-105.8160116298
 10
332.3180698576
 20
-103.1539077131
 10
333.4339651545
 20
-100.5046225761
 10
334.6577409926
 20
-97.878823955
 10
335.9844696586
 20
-95.2870850141
 10
337.4088088845
 20
-92.7398417713
 10
338.9250233588
 20
-90.2473510761
 10
340.527007821
 20
-87.8196493089
 10
342.208311645
 20
-85.4665119678
 10
343.9621648139
 20
-83.1974143065
 10
345.7815051799
 20
-81.0214931802
 10
347.6590069014
 20
-78.9475102554
 10
349.5871099418
 20
-76.9838167294
 10
351.5580505105
 20
-75.1383197029
 10
353.5638923254
 20
-73.418450341
 10
355.5965585697
 20
-71.8311339507
 10
357.6478644137
 20
-70.3827620949
 10
359.7095499728
 20
-69.0791668557
 10
361.7733135669
 20
-67.9255973512
 10
363.8308451484
 20
-66.9266985986
 10
365.8738597638
 20
-66.0864928106
 10
367.8941309143
 20
-65.4083631994
 10
369.8835236811
 20
-64.8950403536
 10
371.8340274816
 20
-64.548591243
 10
373.7377883254
 20
-64.3704108961
 10
375.5871404396
 20
-64.3612167821
 10
376.8493523129
 20
-64.4558156843
  0
LWPOLYLINE
  5
123
330
1F
100
AcDbEntity
  8
0
  6
Continuous
 62
     1
370
    25
100
AcDbPolyline
 90
       24
 70
   128
 43
0.0
 10
353.3607979546
 20
-32.7838383188
 10
353.0794204736
 20
-32.6471666268
 10
352.3525293761
 20
-32.4384346803
 10
351.5555972365
 20
-32.3959895641
 10
350.704847295
 20
-32.5206953384
 10
349.8175983671
 20
-32.8100133531
 10
348.9119122822
 20
-33.2580539279
 10
348.0062261974
 20
-33.8556962487
 10
347.1189772694
 20
-34.5907740413
 10
346.2682273279
 20
-35.4483232416
 10
345.4712951884
 20
-36.4108866209
 10
344.7444040909
 20
-37.4588691646
 10
344.1023514421
 20
-38.5709369701
 10
343.5582075824
 20
-39.7244515441
 10
343.1230497115
 20
-40.895930656
 10
342.8057363889
 20
-42.0615263697
 10
342.6127271988
 20
-43.1975105175
 10
342.5479512516
 20
-44.2807577381
 10
342.6127271988
 20
-45.289216242
 10
342.8057363889
 20
-46.2023567222
 10
343.1230497115
 20
-47.0015902718
 10
343.5582075824
 20
-47.6706468005
 10
344.1023514421
 20
-48.1959062468
 10
344.4122779854
 20
-48.4013609963
  0
LWPOLYLINE
  5
124
330
1F
100
AcDbEntity
  8
0
  6
Continuous
 62
     1
370
    25
100
AcDbPolyline
 90
       24
 70
   128
 43
0.0
 10
302.0955563186
 20
-121.5778412341
 10
301.8141788376
 20
-121.4411695421
 10
301.0872877401
 20
-121.2324375956
 10
300.2903556005
 20
-121.1899924794
 10
299.439605659
 20
-121.3146982537
 10
298.5523567311
 20
-121.6040162684
 10
297.6466706462
 20
-122.0520568432
 10
296.7409845614
 20
-122.649699164
 10
295.8537356334
 20
-123.3847769566
 10
295.0029856919
 20
-124.2423261569
 10
294.2060535523
 20
-125.2048895362
 10
293.4791624549
 20
-126.2528720798
 10
292.8371098061
 20
-127.3649398854
 10
292.2929659464
 20
-128.5184544593
 10
291.8578080755
 20
-129.6899335713
 10
291.5404947529
 20
-130.8555292849
 10
291.3474855627
 20
-131.9915134327
 10
291.2827096155
 20
-133.0747606534
 10
291.3474855628
 20
-134.0832191573
 10
291.5404947529
 20
-134.9963596375
 10
291.8578080755
 20
-135.7955931871
 10
292.2929659464
 20
-136.4646497158
 10
292.8371098061
 20
-136.989909162
 10
293.1470363493
 20
-137.1953639116
  0
ENDSEC
  0
SECTION
  2
OBJECTS
  0
DICTIONARY
  5
C
330
0
100
AcDbDictionary
281
     1
  3
ACAD_GROUP
350
D
  3
ACAD_LAYOUT
350
1A
  3
ACAD_MLINESTYLE
350
17
  3
ACAD_PLOTSETTINGS
350
19
  3
ACAD_PLOTSTYLENAME
350
E
  3
ACAD_SCALELIST
350
47
  3
DWGPROPS
350
125
  0
DICTIONARY
  5
D
102
{ACAD_REACTORS
330
C
102
}
330
C
100
AcDbDictionary
281
     1
  0
DICTIONARY
  5
1A
102
{ACAD_REACTORS
330
C
102
}
330
C
100
AcDbDictionary
281
     1
  3
Layout1
350
1E
  3
Layout2
350
26
  3
Model
350
22
  0
DICTIONARY
  5
17
102
{ACAD_REACTORS
330
C
102
}
330
C
100
AcDbDictionary
281
     1
  3
Standard
350
18
  0
DICTIONARY
  5
19
102
{ACAD_REACTORS
330
C
102
}
330
C
100
AcDbDictionary
281
     1
  0
ACDBDICTIONARYWDFLT
  5
E
102
{ACAD_REACTORS
330
C
102
}
330
C
100
AcDbDictionary
281
     1
  3
Normal
350
F
100
AcDbDictionaryWithDefault
340
F
  0
DICTIONARY
  5
47
102
{ACAD_REACTORS
330
C
102
}
330
C
100
AcDbDictionary
281
     1
  3
A0
350
48
  3
A1
350
49
  3
A2
350
4A
  3
A3
350
4B
  3
A4
350
4C
  3
A5
350
4D
  3
A6
350
4E
  3
A7
350
4F
  3
A8
350
50
  3
A9
350
51
  3
B0
350
52
  3
B1
350
53
  3
B2
350
54
  3
B3
350
55
  3
B4
350
56
  3
B5
350
57
  3
B6
350
58
  3
B7
350
59
  3
B8
350
5A
  3
B9
350
5B
  3
C0
350
5C
  3
C1
350
5D
  3
C2
350
5E
  3
C3
350
5F
  3
C4
350
60
  3
C5
350
61
  3
C6
350
62
  3
C7
350
63
  3
C8
350
64
  3
C9
350
65
  3
D0
350
66
  3
D1
350
67
  3
D2
350
68
  0
XRECORD
  5
125
102
{ACAD_REACTORS
330
C
102
}
330
C
100
AcDbXrecord
280
     1
  1
DWGPROPS COOKIE
  2

  3

  4

  6

  7

  8
b.kav
  9

300
=
301
=
302
=
303
=
304
=
305
=
306
=
307
=
308
=
309
=
 40
0.0
 41
2459741.467438692
 42
2459741.46744022
  1

 90
        0
  0
LAYOUT
  5
1E
102
{ACAD_REACTORS
330
1A
102
}
330
1A
100
AcDbPlotSettings
  1

  2
none_device
  4

  6

 40
0.0
 41
0.0
 42
0.0
 43
0.0
 44
0.0
 45
0.0
 46
0.0
 47
0.0
 48
0.0
 49
0.0
140
0.0
141
0.0
142
1.0
143
1.0
 70
   688
 72
     1
 73
     0
 74
     5
  7

 75
    16
147
1.0
148
0.0
149
0.0
100
AcDbLayout
  1
Layout1
 70
     1
 71
     1
 10
0.0
 20
0.0
 11
420.0
 21
297.0
 12
0.0
 22
0.0
 32
0.0
 14
1.0000000000E+20
 24
1.0000000000E+20
 34
1.0000000000E+20
 15
-1.0000000000E+20
 25
-1.0000000000E+20
 35
-1.0000000000E+20
146
0.0
 13
0.0
 23
0.0
 33
0.0
 16
1.0
 26
0.0
 36
0.0
 17
0.0
 27
1.0
 37
0.0
 76
     0
330
1B
  0
LAYOUT
  5
26
102
{ACAD_REACTORS
330
1A
102
}
330
1A
100
AcDbPlotSettings
  1

  2
none_device
  4

  6

 40
0.0
 41
0.0
 42
0.0
 43
0.0
 44
0.0
 45
0.0
 46
0.0
 47
0.0
 48
0.0
 49
0.0
140
0.0
141
0.0
142
1.0
143
1.0
 70
   688
 72
     1
 73
     0
 74
     5
  7

 75
    16
147
1.0
148
0.0
149
0.0
100
AcDbLayout
  1
Layout2
 70
     1
 71
     2
 10
0.0
 20
0.0
 11
0.0
 21
0.0
 12
0.0
 22
0.0
 32
0.0
 14
0.0
 24
0.0
 34
0.0
 15
0.0
 25
0.0
 35
0.0
146
0.0
 13
0.0
 23
0.0
 33
0.0
 16
1.0
 26
0.0
 36
0.0
 17
0.0
 27
1.0
 37
0.0
 76
     0
330
23
  0
LAYOUT
  5
22
102
{ACAD_REACTORS
330
1A
102
}
330
1A
100
AcDbPlotSettings
  1

  2
none_device
  4
Letter_(8.50_x_11.00_Inches)
  6

 40
6.35
 41
6.35
 42
6.35000508
 43
6.35000508
 44
215.9
 45
279.4
 46
0.0
 47
0.0
 48
0.0
 49
0.0
140
0.0
141
0.0
142
1.0
143
1.0
 70
  1712
 72
     1
 73
     0
 74
     0
  7

 75
     0
147
1.0
148
0.0
149
0.0
100
AcDbLayout
  1
Model
 70
     1
 71
     0
 10
0.0
 20
0.0
 11
279.4
 21
215.9
 12
0.0
 22
0.0
 32
0.0
 14
0.0
 24
0.0
 34
0.0
 15
279.4
 25
215.9
 35
0.0
146
0.0
 13
0.0
 23
0.0
 33
0.0
 16
1.0
 26
0.0
 36
0.0
 17
0.0
 27
1.0
 37
0.0
 76
     0
330
1F
331
29
  0
MLINESTYLE
  5
18
102
{ACAD_REACTORS
330
17
102
}
330
17
100
AcDbMlineStyle
  2
Standard
 70
     0
  3

 62
   256
 51
90.0
 52
90.0
 71
     2
 49
0.5
 62
   256
  6
BYLAYER
 49
-0.5
 62
   256
  6
BYLAYER
  0
ACDBPLACEHOLDER
  5
F
102
{ACAD_REACTORS
330
E
102
}
330
E
  0
SCALE
  5
48
102
{ACAD_REACTORS
330
47
102
}
330
47
100
AcDbScale
 70
     0
300
1:1
140
1.0
141
1.0
290
     1
  0
SCALE
  5
49
102
{ACAD_REACTORS
330
47
102
}
330
47
100
AcDbScale
 70
     0
300
1:2
140
1.0
141
2.0
290
     0
  0
SCALE
  5
4A
102
{ACAD_REACTORS
330
47
102
}
330
47
100
AcDbScale
 70
     0
300
1:4
140
1.0
141
4.0
290
     0
  0
SCALE
  5
4B
102
{ACAD_REACTORS
330
47
102
}
330
47
100
AcDbScale
 70
     0
300
1:5
140
1.0
141
5.0
290
     0
  0
SCALE
  5
4C
102
{ACAD_REACTORS
330
47
102
}
330
47
100
AcDbScale
 70
     0
300
1:8
140
1.0
141
8.0
290
     0
  0
SCALE
  5
4D
102
{ACAD_REACTORS
330
47
102
}
330
47
100
AcDbScale
 70
     0
300
1:10
140
1.0
141
10.0
290
     0
  0
SCALE
  5
4E
102
{ACAD_REACTORS
330
47
102
}
330
47
100
AcDbScale
 70
     0
300
1:16
140
1.0
141
16.0
290
     0
  0
SCALE
  5
4F
102
{ACAD_REACTORS
330
47
102
}
330
47
100
AcDbScale
 70
     0
300
1:20
140
1.0
141
20.0
290
     0
  0
SCALE
  5
50
102
{ACAD_REACTORS
330
47
102
}
330
47
100
AcDbScale
 70
     0
300
1:30
140
1.0
141
30.0
290
     0
  0
SCALE
  5
51
102
{ACAD_REACTORS
330
47
102
}
330
47
100
AcDbScale
 70
     0
300
1:40
140
1.0
141
40.0
290
     0
  0
SCALE
  5
52
102
{ACAD_REACTORS
330
47
102
}
330
47
100
AcDbScale
 70
     0
300
1:50
140
1.0
141
50.0
290
     0
  0
SCALE
  5
53
102
{ACAD_REACTORS
330
47
102
}
330
47
100
AcDbScale
 70
     0
300
1:100
140
1.0
141
100.0
290
     0
  0
SCALE
  5
54
102
{ACAD_REACTORS
330
47
102
}
330
47
100
AcDbScale
 70
     0
300
2:1
140
2.0
141
1.0
290
     0
  0
SCALE
  5
55
102
{ACAD_REACTORS
330
47
102
}
330
47
100
AcDbScale
 70
     0
300
4:1
140
4.0
141
1.0
290
     0
  0
SCALE
  5
56
102
{ACAD_REACTORS
330
47
102
}
330
47
100
AcDbScale
 70
     0
300
8:1
140
8.0
141
1.0
290
     0
  0
SCALE
  5
57
102
{ACAD_REACTORS
330
47
102
}
330
47
100
AcDbScale
 70
     0
300
10:1
140
10.0
141
1.0
290
     0
  0
SCALE
  5
58
102
{ACAD_REACTORS
330
47
102
}
330
47
100
AcDbScale
 70
     0
300
100:1
140
100.0
141
1.0
290
     0
  0
SCALE
  5
59
102
{ACAD_REACTORS
330
47
102
}
330
47
100
AcDbScale
 70
     0
300
1/128" = 1'-0"
140
0.0078125
141
12.0
290
     0
  0
SCALE
  5
5A
102
{ACAD_REACTORS
330
47
102
}
330
47
100
AcDbScale
 70
     0
300
1/64" = 1'-0"
140
0.015625
141
12.0
290
     0
  0
SCALE
  5
5B
102
{ACAD_REACTORS
330
47
102
}
330
47
100
AcDbScale
 70
     0
300
1/32" = 1'-0"
140
0.03125
141
12.0
290
     0
  0
SCALE
  5
5C
102
{ACAD_REACTORS
330
47
102
}
330
47
100
AcDbScale
 70
     0
300
1/16" = 1'-0"
140
0.0625
141
12.0
290
     0
  0
SCALE
  5
5D
102
{ACAD_REACTORS
330
47
102
}
330
47
100
AcDbScale
 70
     0
300
3/32" = 1'-0"
140
0.09375
141
12.0
290
     0
  0
SCALE
  5
5E
102
{ACAD_REACTORS
330
47
102
}
330
47
100
AcDbScale
 70
     0
300
1/8" = 1'-0"
140
0.125
141
12.0
290
     0
  0
SCALE
  5
5F
102
{ACAD_REACTORS
330
47
102
}
330
47
100
AcDbScale
 70
     0
300
3/16" = 1'-0"
140
0.1875
141
12.0
290
     0
  0
SCALE
  5
60
102
{ACAD_REACTORS
330
47
102
}
330
47
100
AcDbScale
 70
     0
300
1/4" = 1'-0"
140
0.25
141
12.0
290
     0
  0
SCALE
  5
61
102
{ACAD_REACTORS
330
47
102
}
330
47
100
AcDbScale
 70
     0
300
3/8" = 1'-0"
140
0.375
141
12.0
290
     0
  0
SCALE
  5
62
102
{ACAD_REACTORS
330
47
102
}
330
47
100
AcDbScale
 70
     0
300
1/2" = 1'-0"
140
0.5
141
12.0
290
     0
  0
SCALE
  5
63
102
{ACAD_REACTORS
330
47
102
}
330
47
100
AcDbScale
 70
     0
300
3/4" = 1'-0"
140
0.75
141
12.0
290
     0
  0
SCALE
  5
64
102
{ACAD_REACTORS
330
47
102
}
330
47
100
AcDbScale
 70
     0
300
1" = 1'-0"
140
1.0
141
12.0
290
     0
  0
SCALE
  5
65
102
{ACAD_REACTORS
330
47
102
}
330
47
100
AcDbScale
 70
     0
300
1-1/2" = 1'-0"
140
1.5
141
12.0
290
     0
  0
SCALE
  5
66
102
{ACAD_REACTORS
330
47
102
}
330
47
100
AcDbScale
 70
     0
300
3" = 1'-0"
140
3.0
141
12.0
290
     0
  0
SCALE
  5
67
102
{ACAD_REACTORS
330
47
102
}
330
47
100
AcDbScale
 70
     0
300
6" = 1'-0"
140
6.0
141
12.0
290
     0
  0
SCALE
  5
68
102
{ACAD_REACTORS
330
47
102
}
330
47
100
AcDbScale
 70
     0
300
1'-0" = 1'-0"
140
12.0
141
12.0
290
     0
  0
ENDSEC
  0
EOF
